ISO-10303-21;
HEADER;
FILE_DESCRIPTION (( 'STEP AP203' ),
    '1' );
FILE_NAME ('353e.STEP',
    '2022-07-07T09:43:07',
    ( '' ),
    ( '' ),
    'SwSTEP 2.0',
    'SolidWorks 2019',
    '' );
FILE_SCHEMA (( 'CONFIG_CONTROL_DESIGN' ));
ENDSEC;

DATA;
#1 = ORIENTED_EDGE ( 'NONE', *, *, #12, .F. ) ;
#2 = COORDINATED_UNIVERSAL_TIME_OFFSET ( 1, 0, .AHEAD. ) ;
#3 = ORIENTED_EDGE ( 'NONE', *, *, #29, .T. ) ;
#4 = DIRECTION ( 'NONE',  ( -0.000000000000000000, -0.000000000000000000, -1.000000000000000000 ) ) ;
#5 = EDGE_CURVE ( 'NONE', #150, #97, #22, .T. ) ;
#6 = ADVANCED_FACE ( 'NONE', ( #167 ), #46, .F. ) ;
#7 = EDGE_LOOP ( 'NONE', ( #270, #163, #259, #102 ) ) ;
#8 = CIRCLE ( 'NONE', #15, 6.250000000000000000 ) ;
#9 = DIRECTION ( 'NONE',  ( -1.000000000000000000, 0.000000000000000000, 0.000000000000000000 ) ) ;
#10 = DIRECTION ( 'NONE',  ( -0.000000000000000000, -0.000000000000000000, -1.000000000000000000 ) ) ;
#11 = FACE_BOUND ( 'NONE', #122, .T. ) ;
#12 = EDGE_CURVE ( 'NONE', #20, #186, #206, .T. ) ;
#13 = PRODUCT_DEFINITION ( 'NEZNÁMÝ', '', #252, #98 ) ;
#14 = DIRECTION ( 'NONE',  ( -1.000000000000000000, 0.000000000000000000, 0.000000000000000000 ) ) ;
#15 = AXIS2_PLACEMENT_3D ( 'NONE', #85, #256, #111 ) ;
#16 = DIRECTION ( 'NONE',  ( 0.000000000000000000, 0.000000000000000000, 1.000000000000000000 ) ) ;
#17 = CALENDAR_DATE ( 2022, 7, 7 ) ;
#18 = PERSON_AND_ORGANIZATION_ROLE ( 'design_owner' ) ;
#19 = ORIENTED_EDGE ( 'NONE', *, *, #136, .F. ) ;
#20 = VERTEX_POINT ( 'NONE', #73 ) ;
#21 = APPROVAL_DATE_TIME ( #168, #86 ) ;
#22 = LINE ( 'NONE', #120, #34 ) ;
#23 = ORIENTED_EDGE ( 'NONE', *, *, #105, .F. ) ;
#24 = CIRCLE ( 'NONE', #194, 6.450000000000000178 ) ;
#25 = CC_DESIGN_APPROVAL ( #86, ( #301 ) ) ;
#26 = CALENDAR_DATE ( 2022, 7, 7 ) ;
#27 = ORIENTED_EDGE ( 'NONE', *, *, #231, .F. ) ;
#28 = CARTESIAN_POINT ( 'NONE',  ( 0.000000000000000000, 0.000000000000000000, 0.000000000000000000 ) ) ;
#29 = EDGE_CURVE ( 'NONE', #108, #44, #117, .T. ) ;
#30 = AXIS2_PLACEMENT_3D ( 'NONE', #145, #4, #9 ) ;
#31 = AXIS2_PLACEMENT_3D ( 'NONE', #202, #10, #176 ) ;
#32 = ORIENTED_EDGE ( 'NONE', *, *, #50, .F. ) ;
#33 = DIRECTION ( 'NONE',  ( 1.000000000000000000, 0.000000000000000000, -0.000000000000000000 ) ) ;
#34 = VECTOR ( 'NONE', #189, 1000.000000000000000 ) ;
#35 = DIRECTION ( 'NONE',  ( 0.000000000000000000, 0.000000000000000000, 1.000000000000000000 ) ) ;
#36 = DIRECTION ( 'NONE',  ( 0.000000000000000000, 0.000000000000000000, 1.000000000000000000 ) ) ;
#37 = EDGE_CURVE ( 'NONE', #287, #150, #90, .T. ) ;
#38 = FACE_OUTER_BOUND ( 'NONE', #289, .T. ) ;
#39 = APPLICATION_PROTOCOL_DEFINITION ( 'international standard', 'config_control_design', 1994, #184 ) ;
#40 = ADVANCED_FACE ( 'NONE', ( #49 ), #211, .T. ) ;
#41 = MECHANICAL_CONTEXT ( 'NONE', #51, 'mechanical' ) ;
#42 = DIRECTION ( 'NONE',  ( 0.000000000000000000, 0.000000000000000000, 1.000000000000000000 ) ) ;
#43 = SHAPE_DEFINITION_REPRESENTATION ( #146, #249 ) ;
#44 = VERTEX_POINT ( 'NONE', #197 ) ;
#45 = APPROVAL_STATUS ( 'not_yet_approved' ) ;
#46 = PLANE ( 'NONE',  #83 ) ;
#47 = VECTOR ( 'NONE', #169, 1000.000000000000000 ) ;
#48 =( GEOMETRIC_REPRESENTATION_CONTEXT ( 3 ) GLOBAL_UNCERTAINTY_ASSIGNED_CONTEXT ( ( #193 ) ) GLOBAL_UNIT_ASSIGNED_CONTEXT ( ( #254, #205, #299 ) ) REPRESENTATION_CONTEXT ( 'NONE', 'WORKASPACE' ) );
#49 = FACE_OUTER_BOUND ( 'NONE', #191, .T. ) ;
#50 = EDGE_CURVE ( 'NONE', #97, #93, #161, .T. ) ;
#51 = APPLICATION_CONTEXT ( 'configuration controlled 3d designs of mechanical parts and assemblies' ) ;
#52 = DIRECTION ( 'NONE',  ( 0.000000000000000000, 0.000000000000000000, 1.000000000000000000 ) ) ;
#53 = ORIENTED_EDGE ( 'NONE', *, *, #215, .T. ) ;
#54 = CARTESIAN_POINT ( 'NONE',  ( 0.000000000000000000, 0.000000000000000000, 0.000000000000000000 ) ) ;
#55 = CIRCLE ( 'NONE', #218, 0.1999999999999996503 ) ;
#56 = DIRECTION ( 'NONE',  ( 1.224646799147353207E-16, 1.000000000000000000, -0.000000000000000000 ) ) ;
#57 = CC_DESIGN_DATE_AND_TIME_ASSIGNMENT ( #164, #121, ( #301 ) ) ;
#58 = ORIENTED_EDGE ( 'NONE', *, *, #37, .T. ) ;
#59 = CARTESIAN_POINT ( 'NONE',  ( -6.250000000000000000, 0.000000000000000000, 167.0000000000000000 ) ) ;
#60 = ORIENTED_EDGE ( 'NONE', *, *, #5, .T. ) ;
#61 = CARTESIAN_POINT ( 'NONE',  ( 6.250000000000000000, 7.654042494670957606E-16, 167.0000000000000000 ) ) ;
#62 = PERSON_AND_ORGANIZATION_ROLE ( 'creator' ) ;
#63 = COORDINATED_UNIVERSAL_TIME_OFFSET ( 1, 0, .AHEAD. ) ;
#64 = FACE_OUTER_BOUND ( 'NONE', #71, .T. ) ;
#65 = DATE_AND_TIME ( #303, #219 ) ;
#66 = ORIENTED_EDGE ( 'NONE', *, *, #281, .F. ) ;
#67 = EDGE_CURVE ( 'NONE', #44, #186, #55, .T. ) ;
#68 = CC_DESIGN_PERSON_AND_ORGANIZATION_ASSIGNMENT ( #230, #18, ( #236 ) ) ;
#69 = PERSON_AND_ORGANIZATION ( #302, #292 ) ;
#70 = ORIENTED_EDGE ( 'NONE', *, *, #215, .F. ) ;
#71 = EDGE_LOOP ( 'NONE', ( #195, #285, #235, #27 ) ) ;
#72 = SECURITY_CLASSIFICATION_LEVEL ( 'unclassified' ) ;
#73 = CARTESIAN_POINT ( 'NONE',  ( 6.450000000000000178, 0.000000000000000000, 7.000000000000006217 ) ) ;
#74 = AXIS2_PLACEMENT_3D ( 'NONE', #110, #297, #81 ) ;
#75 = VECTOR ( 'NONE', #203, 1000.000000000000000 ) ;
#76 = CARTESIAN_POINT ( 'NONE',  ( -9.000000000000000000, 0.000000000000000000, 0.000000000000000000 ) ) ;
#77 = DIRECTION ( 'NONE',  ( 0.000000000000000000, 0.000000000000000000, 1.000000000000000000 ) ) ;
#78 = CC_DESIGN_PERSON_AND_ORGANIZATION_ASSIGNMENT ( #239, #94, ( #252 ) ) ;
#79 = FACE_OUTER_BOUND ( 'NONE', #125, .T. ) ;
#80 = CYLINDRICAL_SURFACE ( 'NONE', #306, 9.000000000000000000 ) ;
#81 = DIRECTION ( 'NONE',  ( 1.000000000000000000, 0.000000000000000000, -0.000000000000000000 ) ) ;
#82 = DIRECTION ( 'NONE',  ( -1.000000000000000000, 0.000000000000000000, 0.000000000000000000 ) ) ;
#83 = AXIS2_PLACEMENT_3D ( 'NONE', #28, #42, #305 ) ;
#84 = APPROVAL_PERSON_ORGANIZATION ( #114, #267, #185 ) ;
#85 = CARTESIAN_POINT ( 'NONE',  ( 0.000000000000000000, 0.000000000000000000, 167.0000000000000000 ) ) ;
#86 = APPROVAL ( #45, 'NEURÈENÝ' ) ;
#87 = CYLINDRICAL_SURFACE ( 'NONE', #103, 6.250000000000000000 ) ;
#88 = ORIENTED_EDGE ( 'NONE', *, *, #37, .F. ) ;
#89 = ADVANCED_FACE ( 'NONE', ( #38 ), #248, .T. ) ;
#90 = CIRCLE ( 'NONE', #296, 9.000000000000000000 ) ;
#91 = COORDINATED_UNIVERSAL_TIME_OFFSET ( 1, 0, .AHEAD. ) ;
#93 = VERTEX_POINT ( 'NONE', #246 ) ;
#92 = APPROVAL_PERSON_ORGANIZATION ( #262, #86, #118 ) ;
#94 = PERSON_AND_ORGANIZATION_ROLE ( 'design_supplier' ) ;
#95 = ORIENTED_EDGE ( 'NONE', *, *, #105, .T. ) ;
#96 = CALENDAR_DATE ( 2022, 7, 7 ) ;
#97 = VERTEX_POINT ( 'NONE', #76 ) ;
#98 = DESIGN_CONTEXT ( 'detailed design', #184, 'design' ) ;
#99 = ADVANCED_FACE ( 'NONE', ( #79 ), #272, .T. ) ;
#100 = CLOSED_SHELL ( 'NONE', ( #170, #253, #99, #179, #222, #6, #40, #89, #283 ) ) ;
#101 = CIRCLE ( 'NONE', #177, 6.250000000000000000 ) ;
#102 = ORIENTED_EDGE ( 'NONE', *, *, #29, .F. ) ;
#103 = AXIS2_PLACEMENT_3D ( 'NONE', #157, #258, #82 ) ;
#104 = DIRECTION ( 'NONE',  ( 0.000000000000000000, 0.000000000000000000, 1.000000000000000000 ) ) ;
#105 = EDGE_CURVE ( 'NONE', #93, #97, #247, .T. ) ;
#106 = PLANE ( 'NONE',  #74 ) ;
#107 = CARTESIAN_POINT ( 'NONE',  ( 0.000000000000000000, 0.000000000000000000, 7.000000000000000000 ) ) ;
#108 = VERTEX_POINT ( 'NONE', #59 ) ;
#109 = AXIS2_PLACEMENT_3D ( 'NONE', #133, #282, #300 ) ;
#110 = CARTESIAN_POINT ( 'NONE',  ( 0.000000000000000000, 0.000000000000000000, 7.000000000000000000 ) ) ;
#111 = DIRECTION ( 'NONE',  ( 1.000000000000000000, 0.000000000000000000, 0.000000000000000000 ) ) ;
#112 = DIRECTION ( 'NONE',  ( 1.000000000000000000, 0.000000000000000000, 0.000000000000000000 ) ) ;
#113 = PRODUCT_RELATED_PRODUCT_CATEGORY ( 'detail', '', ( #236 ) ) ;
#114 = PERSON_AND_ORGANIZATION ( #302, #292 ) ;
#115 = ORIENTED_EDGE ( 'NONE', *, *, #12, .T. ) ;
#116 = ORIENTED_EDGE ( 'NONE', *, *, #67, .T. ) ;
#117 = LINE ( 'NONE', #286, #47 ) ;
#118 = APPROVAL_ROLE ( '' ) ;
#120 = CARTESIAN_POINT ( 'NONE',  ( -9.000000000000000000, 0.000000000000000000, 7.000000000000000000 ) ) ;
#119 = CIRCLE ( 'NONE', #109, 6.250000000000000000 ) ;
#121 = DATE_TIME_ROLE ( 'classification_date' ) ;
#122 = EDGE_LOOP ( 'NONE', ( #115, #216 ) ) ;
#123 = ORIENTED_EDGE ( 'NONE', *, *, #50, .T. ) ;
#124 = EDGE_CURVE ( 'NONE', #150, #287, #273, .T. ) ;
#125 = EDGE_LOOP ( 'NONE', ( #88, #244, #95, #165 ) ) ;
#126 = FACE_OUTER_BOUND ( 'NONE', #240, .T. ) ;
#127 = LOCAL_TIME ( 11, 43, 7.000000000000000000, #63 ) ;
#128 = DIRECTION ( 'NONE',  ( 1.000000000000000000, 0.000000000000000000, 0.000000000000000000 ) ) ;
#129 = CARTESIAN_POINT ( 'NONE',  ( 0.000000000000000000, 0.000000000000000000, 167.0000000000000000 ) ) ;
#130 = CARTESIAN_POINT ( 'NONE',  ( 0.000000000000000000, 0.000000000000000000, 7.000000000000000000 ) ) ;
#131 = AXIS2_PLACEMENT_3D ( 'NONE', #139, #214, #233 ) ;
#132 = AXIS2_PLACEMENT_3D ( 'NONE', #228, #183, #255 ) ;
#133 = CARTESIAN_POINT ( 'NONE',  ( 0.000000000000000000, 0.000000000000000000, 7.200000000000011724 ) ) ;
#134 = DIRECTION ( 'NONE',  ( 1.000000000000000000, 0.000000000000000000, 0.000000000000000000 ) ) ;
#135 = APPROVAL ( #166, 'NEURÈENÝ' ) ;
#136 = EDGE_CURVE ( 'NONE', #209, #304, #199, .T. ) ;
#137 = AXIS2_PLACEMENT_3D ( 'NONE', #107, #271, #174 ) ;
#138 = DIRECTION ( 'NONE',  ( -0.000000000000000000, -0.000000000000000000, -1.000000000000000000 ) ) ;
#139 = CARTESIAN_POINT ( 'NONE',  ( 0.000000000000000000, 0.000000000000000000, 7.000000000000000000 ) ) ;
#140 = APPROVAL_ROLE ( '' ) ;
#141 = EDGE_LOOP ( 'NONE', ( #32, #23 ) ) ;
#142 = PERSON_AND_ORGANIZATION ( #302, #292 ) ;
#143 = CARTESIAN_POINT ( 'NONE',  ( 0.000000000000000000, 0.000000000000000000, 7.000000000000000000 ) ) ;
#144 = PERSON_AND_ORGANIZATION_ROLE ( 'classification_officer' ) ;
#145 = CARTESIAN_POINT ( 'NONE',  ( 0.000000000000000000, 0.000000000000000000, 167.0000000000000000 ) ) ;
#146 = PRODUCT_DEFINITION_SHAPE ( 'NONE', 'NONE',  #13 ) ;
#147 = LOCAL_TIME ( 11, 43, 7.000000000000000000, #190 ) ;
#148 = ORIENTED_EDGE ( 'NONE', *, *, #291, .F. ) ;
#149 = CARTESIAN_POINT ( 'NONE',  ( 0.000000000000000000, 0.000000000000000000, 0.000000000000000000 ) ) ;
#150 = VERTEX_POINT ( 'NONE', #153 ) ;
#151 = DIRECTION ( 'NONE',  ( -1.000000000000000000, 1.224646799147353454E-16, 0.000000000000000000 ) ) ;
#152 = CARTESIAN_POINT ( 'NONE',  ( 0.000000000000000000, 0.000000000000000000, 167.0000000000000000 ) ) ;
#153 = CARTESIAN_POINT ( 'NONE',  ( -9.000000000000000000, 0.000000000000000000, 7.000000000000000000 ) ) ;
#154 = ORIENTED_EDGE ( 'NONE', *, *, #158, .F. ) ;
#155 = AXIS2_PLACEMENT_3D ( 'NONE', #149, #52, #250 ) ;
#156 = CARTESIAN_POINT ( 'NONE',  ( 9.000000000000000000, 1.102182119232617714E-15, 7.000000000000000000 ) ) ;
#157 = CARTESIAN_POINT ( 'NONE',  ( 0.000000000000000000, 0.000000000000000000, 167.0000000000000000 ) ) ;
#158 = EDGE_CURVE ( 'NONE', #108, #209, #101, .T. ) ;
#159 = CARTESIAN_POINT ( 'NONE',  ( 6.250000000000000000, 7.654042494670957606E-16, 7.200000000000011724 ) ) ;
#160 = VECTOR ( 'NONE', #224, 1000.000000000000000 ) ;
#161 = CIRCLE ( 'NONE', #237, 9.000000000000000000 ) ;
#162 = DIRECTION ( 'NONE',  ( 1.000000000000000000, 0.000000000000000000, 0.000000000000000000 ) ) ;
#163 = ORIENTED_EDGE ( 'NONE', *, *, #136, .T. ) ;
#164 = DATE_AND_TIME ( #26, #243 ) ;
#165 = ORIENTED_EDGE ( 'NONE', *, *, #5, .F. ) ;
#166 = APPROVAL_STATUS ( 'not_yet_approved' ) ;
#167 = FACE_OUTER_BOUND ( 'NONE', #141, .T. ) ;
#168 = DATE_AND_TIME ( #96, #238 ) ;
#169 = DIRECTION ( 'NONE',  ( -0.000000000000000000, -0.000000000000000000, -1.000000000000000000 ) ) ;
#170 = ADVANCED_FACE ( 'NONE', ( #126 ), #268, .F. ) ;
#171 = PERSON_AND_ORGANIZATION ( #302, #292 ) ;
#172 = MANIFOLD_SOLID_BREP ( 'Zaoblit1', #100 ) ;
#173 = CC_DESIGN_SECURITY_CLASSIFICATION ( #301, ( #252 ) ) ;
#174 = DIRECTION ( 'NONE',  ( 1.000000000000000000, 0.000000000000000000, 0.000000000000000000 ) ) ;
#175 = DIRECTION ( 'NONE',  ( 0.000000000000000000, 0.000000000000000000, 1.000000000000000000 ) ) ;
#176 = DIRECTION ( 'NONE',  ( -1.000000000000000000, 0.000000000000000000, 0.000000000000000000 ) ) ;
#177 = AXIS2_PLACEMENT_3D ( 'NONE', #152, #35, #295 ) ;
#178 = CARTESIAN_POINT ( 'NONE',  ( 0.000000000000000000, 0.000000000000000000, 7.200000000000011724 ) ) ;
#179 = ADVANCED_FACE ( 'NONE', ( #217 ), #80, .T. ) ;
#180 = ORIENTED_EDGE ( 'NONE', *, *, #274, .T. ) ;
#181 = CARTESIAN_POINT ( 'NONE',  ( 0.000000000000000000, 0.000000000000000000, 7.000000000000000000 ) ) ;
#182 = APPROVAL_DATE_TIME ( #65, #267 ) ;
#183 = DIRECTION ( 'NONE',  ( 0.000000000000000000, -1.000000000000000000, 0.000000000000000000 ) ) ;
#184 = APPLICATION_CONTEXT ( 'configuration controlled 3d designs of mechanical parts and assemblies' ) ;
#185 = APPROVAL_ROLE ( '' ) ;
#186 = VERTEX_POINT ( 'NONE', #196 ) ;
#187 = AXIS2_PLACEMENT_3D ( 'NONE', #277, #251, #134 ) ;
#188 = EDGE_LOOP ( 'NONE', ( #208, #58 ) ) ;
#189 = DIRECTION ( 'NONE',  ( -0.000000000000000000, -0.000000000000000000, -1.000000000000000000 ) ) ;
#190 = COORDINATED_UNIVERSAL_TIME_OFFSET ( 1, 0, .AHEAD. ) ;
#191 = EDGE_LOOP ( 'NONE', ( #19, #154, #3, #53 ) ) ;
#192 = CC_DESIGN_PERSON_AND_ORGANIZATION_ASSIGNMENT ( #204, #62, ( #13 ) ) ;
#193 = UNCERTAINTY_MEASURE_WITH_UNIT (LENGTH_MEASURE( 1.000000000000000082E-05 ), #254, 'distance_accuracy_value', 'NONE');
#194 = AXIS2_PLACEMENT_3D ( 'NONE', #181, #138, #162 ) ;
#195 = ORIENTED_EDGE ( 'NONE', *, *, #67, .F. ) ;
#196 = CARTESIAN_POINT ( 'NONE',  ( -6.450000000000000178, 7.898971854500428692E-16, 7.000000000000006217 ) ) ;
#197 = CARTESIAN_POINT ( 'NONE',  ( -6.250000000000000000, 0.000000000000000000, 7.200000000000011724 ) ) ;
#198 = CC_DESIGN_DATE_AND_TIME_ASSIGNMENT ( #266, #212, ( #13 ) ) ;
#199 = LINE ( 'NONE', #275, #160 ) ;
#200 = AXIS2_PLACEMENT_3D ( 'NONE', #178, #36, #276 ) ;
#201 = TOROIDAL_SURFACE ( 'NONE', #187, 6.450000000000000178, 0.2000000000000000111 ) ;
#202 = CARTESIAN_POINT ( 'NONE',  ( 0.000000000000000000, 0.000000000000000000, 7.000000000000000000 ) ) ;
#203 = DIRECTION ( 'NONE',  ( -0.000000000000000000, -0.000000000000000000, -1.000000000000000000 ) ) ;
#204 = PERSON_AND_ORGANIZATION ( #302, #292 ) ;
#205 =( NAMED_UNIT ( * ) PLANE_ANGLE_UNIT ( ) SI_UNIT ( $, .RADIAN. ) );
#206 = CIRCLE ( 'NONE', #131, 6.450000000000000178 ) ;
#207 = APPROVAL_STATUS ( 'not_yet_approved' ) ;
#208 = ORIENTED_EDGE ( 'NONE', *, *, #124, .T. ) ;
#209 = VERTEX_POINT ( 'NONE', #61 ) ;
#210 = AXIS2_PLACEMENT_3D ( 'NONE', #293, #175, #128 ) ;
#211 = CYLINDRICAL_SURFACE ( 'NONE', #30, 6.250000000000000000 ) ;
#212 = DATE_TIME_ROLE ( 'creation_date' ) ;
#213 = DIRECTION ( 'NONE',  ( 0.000000000000000000, 0.000000000000000000, 1.000000000000000000 ) ) ;
#214 = DIRECTION ( 'NONE',  ( -0.000000000000000000, -0.000000000000000000, -1.000000000000000000 ) ) ;
#215 = EDGE_CURVE ( 'NONE', #44, #304, #242, .T. ) ;
#216 = ORIENTED_EDGE ( 'NONE', *, *, #231, .T. ) ;
#217 = FACE_OUTER_BOUND ( 'NONE', #261, .T. ) ;
#218 = AXIS2_PLACEMENT_3D ( 'NONE', #294, #56, #151 ) ;
#219 = LOCAL_TIME ( 11, 43, 7.000000000000000000, #227 ) ;
#220 = FACE_OUTER_BOUND ( 'NONE', #188, .T. ) ;
#221 = CC_DESIGN_PERSON_AND_ORGANIZATION_ASSIGNMENT ( #171, #144, ( #301 ) ) ;
#222 = ADVANCED_FACE ( 'NONE', ( #11, #220 ), #106, .T. ) ;
#223 = DIRECTION ( 'NONE',  ( -0.000000000000000000, -0.000000000000000000, -1.000000000000000000 ) ) ;
#224 = DIRECTION ( 'NONE',  ( -0.000000000000000000, -0.000000000000000000, -1.000000000000000000 ) ) ;
#225 = APPROVAL_PERSON_ORGANIZATION ( #142, #135, #140 ) ;
#226 = CARTESIAN_POINT ( 'NONE',  ( 0.000000000000000000, 0.000000000000000000, 0.000000000000000000 ) ) ;
#227 = COORDINATED_UNIVERSAL_TIME_OFFSET ( 1, 0, .AHEAD. ) ;
#228 = CARTESIAN_POINT ( 'NONE',  ( 6.450000000000000178, 0.000000000000000000, 7.200000000000011724 ) ) ;
#229 = AXIS2_PLACEMENT_3D ( 'NONE', #129, #104, #33 ) ;
#230 = PERSON_AND_ORGANIZATION ( #302, #292 ) ;
#231 = EDGE_CURVE ( 'NONE', #186, #20, #24, .T. ) ;
#232 = EDGE_CURVE ( 'NONE', #304, #44, #119, .T. ) ;
#233 = DIRECTION ( 'NONE',  ( 1.000000000000000000, 0.000000000000000000, 0.000000000000000000 ) ) ;
#234 = DATE_AND_TIME ( #290, #147 ) ;
#235 = ORIENTED_EDGE ( 'NONE', *, *, #281, .T. ) ;
#236 = PRODUCT ( '353e', '353e', '', ( #41 ) ) ;
#237 = AXIS2_PLACEMENT_3D ( 'NONE', #54, #77, #245 ) ;
#238 = LOCAL_TIME ( 11, 43, 7.000000000000000000, #2 ) ;
#239 = PERSON_AND_ORGANIZATION ( #302, #292 ) ;
#240 = EDGE_LOOP ( 'NONE', ( #70, #116, #1, #66 ) ) ;
#241 = ORIENTED_EDGE ( 'NONE', *, *, #158, .T. ) ;
#242 = CIRCLE ( 'NONE', #210, 6.250000000000000000 ) ;
#243 = LOCAL_TIME ( 11, 43, 7.000000000000000000, #91 ) ;
#244 = ORIENTED_EDGE ( 'NONE', *, *, #291, .T. ) ;
#245 = DIRECTION ( 'NONE',  ( 1.000000000000000000, 0.000000000000000000, 0.000000000000000000 ) ) ;
#246 = CARTESIAN_POINT ( 'NONE',  ( 9.000000000000000000, 1.102182119232617714E-15, 0.000000000000000000 ) ) ;
#247 = CIRCLE ( 'NONE', #155, 9.000000000000000000 ) ;
#248 = PLANE ( 'NONE',  #229 ) ;
#249 = ADVANCED_BREP_SHAPE_REPRESENTATION ( '353e', ( #172, #264 ), #48 ) ;
#250 = DIRECTION ( 'NONE',  ( 1.000000000000000000, 0.000000000000000000, 0.000000000000000000 ) ) ;
#251 = DIRECTION ( 'NONE',  ( 0.000000000000000000, 0.000000000000000000, 1.000000000000000000 ) ) ;
#252 = PRODUCT_DEFINITION_FORMATION_WITH_SPECIFIED_SOURCE ( 'LIBOVOLNÝ', '', #236, .NOT_KNOWN. ) ;
#253 = ADVANCED_FACE ( 'NONE', ( #280 ), #87, .T. ) ;
#254 =( LENGTH_UNIT ( ) NAMED_UNIT ( * ) SI_UNIT ( .MILLI., .METRE. ) );
#255 = DIRECTION ( 'NONE',  ( 0.000000000000000000, 0.000000000000000000, -1.000000000000000000 ) ) ;
#256 = DIRECTION ( 'NONE',  ( 0.000000000000000000, 0.000000000000000000, 1.000000000000000000 ) ) ;
#257 = CC_DESIGN_PERSON_AND_ORGANIZATION_ASSIGNMENT ( #69, #288, ( #252 ) ) ;
#258 = DIRECTION ( 'NONE',  ( -0.000000000000000000, -0.000000000000000000, -1.000000000000000000 ) ) ;
#259 = ORIENTED_EDGE ( 'NONE', *, *, #232, .T. ) ;
#260 = APPROVAL_DATE_TIME ( #234, #135 ) ;
#261 = EDGE_LOOP ( 'NONE', ( #148, #263, #60, #123 ) ) ;
#262 = PERSON_AND_ORGANIZATION ( #302, #292 ) ;
#263 = ORIENTED_EDGE ( 'NONE', *, *, #124, .F. ) ;
#264 = AXIS2_PLACEMENT_3D ( 'NONE', #226, #16, #112 ) ;
#265 = DIRECTION ( 'NONE',  ( 1.000000000000000000, 0.000000000000000000, 0.000000000000000000 ) ) ;
#266 = DATE_AND_TIME ( #17, #127 ) ;
#267 = APPROVAL ( #207, 'NEURÈENÝ' ) ;
#268 = TOROIDAL_SURFACE ( 'NONE', #200, 6.450000000000000178, 0.2000000000000000111 ) ;
#269 = CIRCLE ( 'NONE', #132, 0.1999999999999996503 ) ;
#270 = ORIENTED_EDGE ( 'NONE', *, *, #274, .F. ) ;
#271 = DIRECTION ( 'NONE',  ( 0.000000000000000000, 0.000000000000000000, 1.000000000000000000 ) ) ;
#272 = CYLINDRICAL_SURFACE ( 'NONE', #31, 9.000000000000000000 ) ;
#273 = CIRCLE ( 'NONE', #137, 9.000000000000000000 ) ;
#274 = EDGE_CURVE ( 'NONE', #209, #108, #8, .T. ) ;
#275 = CARTESIAN_POINT ( 'NONE',  ( 6.250000000000000000, 7.654042494670957606E-16, 167.0000000000000000 ) ) ;
#276 = DIRECTION ( 'NONE',  ( 1.000000000000000000, 0.000000000000000000, 0.000000000000000000 ) ) ;
#277 = CARTESIAN_POINT ( 'NONE',  ( 0.000000000000000000, 0.000000000000000000, 7.200000000000011724 ) ) ;
#278 = CARTESIAN_POINT ( 'NONE',  ( 9.000000000000000000, 1.102182119232617714E-15, 7.000000000000000000 ) ) ;
#279 = CC_DESIGN_APPROVAL ( #135, ( #252 ) ) ;
#280 = FACE_OUTER_BOUND ( 'NONE', #7, .T. ) ;
#281 = EDGE_CURVE ( 'NONE', #304, #20, #269, .T. ) ;
#282 = DIRECTION ( 'NONE',  ( 0.000000000000000000, 0.000000000000000000, 1.000000000000000000 ) ) ;
#283 = ADVANCED_FACE ( 'NONE', ( #64 ), #201, .F. ) ;
#284 = LINE ( 'NONE', #278, #75 ) ;
#285 = ORIENTED_EDGE ( 'NONE', *, *, #232, .F. ) ;
#286 = CARTESIAN_POINT ( 'NONE',  ( -6.250000000000000000, 0.000000000000000000, 167.0000000000000000 ) ) ;
#287 = VERTEX_POINT ( 'NONE', #156 ) ;
#288 = PERSON_AND_ORGANIZATION_ROLE ( 'creator' ) ;
#289 = EDGE_LOOP ( 'NONE', ( #241, #180 ) ) ;
#290 = CALENDAR_DATE ( 2022, 7, 7 ) ;
#291 = EDGE_CURVE ( 'NONE', #287, #93, #284, .T. ) ;
#292 = ORGANIZATION ( 'NEURÈENÝ', 'NEURÈENÝ', '' ) ;
#293 = CARTESIAN_POINT ( 'NONE',  ( 0.000000000000000000, 0.000000000000000000, 7.200000000000011724 ) ) ;
#294 = CARTESIAN_POINT ( 'NONE',  ( -6.450000000000000178, 7.898971854500428692E-16, 7.200000000000011724 ) ) ;
#295 = DIRECTION ( 'NONE',  ( 1.000000000000000000, 0.000000000000000000, 0.000000000000000000 ) ) ;
#296 = AXIS2_PLACEMENT_3D ( 'NONE', #143, #213, #265 ) ;
#297 = DIRECTION ( 'NONE',  ( 0.000000000000000000, 0.000000000000000000, 1.000000000000000000 ) ) ;
#298 = APPLICATION_PROTOCOL_DEFINITION ( 'international standard', 'config_control_design', 1994, #51 ) ;
#299 =( NAMED_UNIT ( * ) SI_UNIT ( $, .STERADIAN. ) SOLID_ANGLE_UNIT ( ) );
#300 = DIRECTION ( 'NONE',  ( 1.000000000000000000, 0.000000000000000000, 0.000000000000000000 ) ) ;
#301 = SECURITY_CLASSIFICATION ( '', '', #72 ) ;
#302 = PERSON ( 'NEURÈENÝ', 'NEURÈENÝ', 'NEURÈENÝ', ('NEURÈENÝ'), ('NEURÈENÝ'), ('NEURÈENÝ') ) ;
#303 = CALENDAR_DATE ( 2022, 7, 7 ) ;
#304 = VERTEX_POINT ( 'NONE', #159 ) ;
#305 = DIRECTION ( 'NONE',  ( 1.000000000000000000, 0.000000000000000000, -0.000000000000000000 ) ) ;
#306 = AXIS2_PLACEMENT_3D ( 'NONE', #130, #223, #14 ) ;
#307 = CC_DESIGN_APPROVAL ( #267, ( #13 ) ) ;
ENDSEC;
END-ISO-10303-21;
