ISO-10303-21;
HEADER;
FILE_DESCRIPTION (( 'STEP AP203' ),
    '1' );
FILE_NAME ('c575.STEP',
    '2022-07-07T10:02:48',
    ( '' ),
    ( '' ),
    'SwSTEP 2.0',
    'SolidWorks 2019',
    '' );
FILE_SCHEMA (( 'CONFIG_CONTROL_DESIGN' ));
ENDSEC;

DATA;
#1 = EDGE_LOOP ( 'NONE', ( #307, #106, #110, #82 ) ) ;
#2 = PRODUCT_DEFINITION ( 'NEZNÁMÝ', '', #92, #124 ) ;
#3 = LINE ( 'NONE', #281, #129 ) ;
#4 = DIRECTION ( 'NONE',  ( 1.000000000000000000, 0.000000000000000000, 0.000000000000000000 ) ) ;
#5 = CARTESIAN_POINT ( 'NONE',  ( 4.000000000000000000, 4.898587196589412829E-16, 5.199999999999982414 ) ) ;
#6 = APPROVAL ( #276, 'NEURÈENÝ' ) ;
#7 = AXIS2_PLACEMENT_3D ( 'NONE', #30, #27, #291 ) ;
#8 = CARTESIAN_POINT ( 'NONE',  ( 7.000000000000000000, 8.572527594031473190E-16, 5.000000000000000000 ) ) ;
#9 = CALENDAR_DATE ( 2022, 7, 7 ) ;
#10 = FACE_OUTER_BOUND ( 'NONE', #192, .T. ) ;
#11 = PERSON_AND_ORGANIZATION ( #45, #180 ) ;
#12 = CIRCLE ( 'NONE', #235, 7.000000000000000000 ) ;
#13 = DIRECTION ( 'NONE',  ( -0.000000000000000000, -0.000000000000000000, -1.000000000000000000 ) ) ;
#14 = PERSON_AND_ORGANIZATION ( #45, #180 ) ;
#15 = APPROVAL_STATUS ( 'not_yet_approved' ) ;
#16 = CIRCLE ( 'NONE', #239, 4.000000000000000000 ) ;
#17 = EDGE_CURVE ( 'NONE', #233, #159, #16, .T. ) ;
#18 = ORIENTED_EDGE ( 'NONE', *, *, #117, .T. ) ;
#19 = VERTEX_POINT ( 'NONE', #52 ) ;
#20 = CIRCLE ( 'NONE', #25, 7.000000000000000000 ) ;
#21 = CARTESIAN_POINT ( 'NONE',  ( 0.000000000000000000, 0.000000000000000000, 320.0000000000000000 ) ) ;
#22 = DIRECTION ( 'NONE',  ( 1.000000000000000000, 0.000000000000000000, -0.000000000000000000 ) ) ;
#23 = EDGE_CURVE ( 'NONE', #159, #288, #278, .T. ) ;
#24 = CARTESIAN_POINT ( 'NONE',  ( 0.000000000000000000, 0.000000000000000000, 5.000000000000000000 ) ) ;
#25 = AXIS2_PLACEMENT_3D ( 'NONE', #130, #296, #224 ) ;
#26 = DIRECTION ( 'NONE',  ( 1.000000000000000000, 0.000000000000000000, 0.000000000000000000 ) ) ;
#27 = DIRECTION ( 'NONE',  ( 0.000000000000000000, 0.000000000000000000, 1.000000000000000000 ) ) ;
#28 = DIRECTION ( 'NONE',  ( 1.000000000000000000, 0.000000000000000000, 0.000000000000000000 ) ) ;
#29 = COORDINATED_UNIVERSAL_TIME_OFFSET ( 1, 0, .AHEAD. ) ;
#30 = CARTESIAN_POINT ( 'NONE',  ( 0.000000000000000000, 0.000000000000000000, 320.0000000000000000 ) ) ;
#31 = MANIFOLD_SOLID_BREP ( 'Zaoblit1', #256 ) ;
#32 = DIRECTION ( 'NONE',  ( -1.000000000000000000, 1.224646799147353454E-16, 0.000000000000000000 ) ) ;
#33 = CARTESIAN_POINT ( 'NONE',  ( -7.000000000000000000, 0.000000000000000000, 5.000000000000000000 ) ) ;
#34 = COORDINATED_UNIVERSAL_TIME_OFFSET ( 1, 0, .AHEAD. ) ;
#35 = AXIS2_PLACEMENT_3D ( 'NONE', #248, #246, #127 ) ;
#36 = APPROVAL_PERSON_ORGANIZATION ( #103, #6, #107 ) ;
#37 =( LENGTH_UNIT ( ) NAMED_UNIT ( * ) SI_UNIT ( .MILLI., .METRE. ) );
#38 = APPLICATION_PROTOCOL_DEFINITION ( 'international standard', 'config_control_design', 1994, #84 ) ;
#39 = CC_DESIGN_PERSON_AND_ORGANIZATION_ASSIGNMENT ( #149, #154, ( #50 ) ) ;
#40 = ORIENTED_EDGE ( 'NONE', *, *, #23, .F. ) ;
#41 = ORIENTED_EDGE ( 'NONE', *, *, #151, .F. ) ;
#42 = AXIS2_PLACEMENT_3D ( 'NONE', #102, #197, #223 ) ;
#43 = ADVANCED_FACE ( 'NONE', ( #187 ), #143, .T. ) ;
#44 = AXIS2_PLACEMENT_3D ( 'NONE', #116, #120, #237 ) ;
#45 = PERSON ( 'NEURÈENÝ', 'NEURÈENÝ', 'NEURÈENÝ', ('NEURÈENÝ'), ('NEURÈENÝ'), ('NEURÈENÝ') ) ;
#46 = AXIS2_PLACEMENT_3D ( 'NONE', #128, #271, #202 ) ;
#47 = CARTESIAN_POINT ( 'NONE',  ( 0.000000000000000000, 0.000000000000000000, 320.0000000000000000 ) ) ;
#48 = DIRECTION ( 'NONE',  ( 0.000000000000000000, 0.000000000000000000, 1.000000000000000000 ) ) ;
#49 = DIRECTION ( 'NONE',  ( 0.000000000000000000, 0.000000000000000000, 1.000000000000000000 ) ) ;
#50 = PRODUCT ( 'c575', 'c575', '', ( #172 ) ) ;
#51 = VERTEX_POINT ( 'NONE', #191 ) ;
#52 = CARTESIAN_POINT ( 'NONE',  ( -7.000000000000000000, 0.000000000000000000, 0.000000000000000000 ) ) ;
#53 = CARTESIAN_POINT ( 'NONE',  ( -4.000000000000000000, 0.000000000000000000, 320.0000000000000000 ) ) ;
#54 = UNCERTAINTY_MEASURE_WITH_UNIT (LENGTH_MEASURE( 1.000000000000000082E-05 ), #37, 'distance_accuracy_value', 'NONE');
#55 = EDGE_CURVE ( 'NONE', #288, #182, #249, .T. ) ;
#56 = DIRECTION ( 'NONE',  ( 1.224646799147353207E-16, 1.000000000000000000, -0.000000000000000000 ) ) ;
#57 = FACE_BOUND ( 'NONE', #136, .T. ) ;
#58 = DIRECTION ( 'NONE',  ( -0.000000000000000000, -0.000000000000000000, -1.000000000000000000 ) ) ;
#59 =( NAMED_UNIT ( * ) SI_UNIT ( $, .STERADIAN. ) SOLID_ANGLE_UNIT ( ) );
#60 = FACE_OUTER_BOUND ( 'NONE', #67, .T. ) ;
#61 = ADVANCED_BREP_SHAPE_REPRESENTATION ( 'c575', ( #31, #46 ), #241 ) ;
#62 = CC_DESIGN_PERSON_AND_ORGANIZATION_ASSIGNMENT ( #14, #227, ( #92 ) ) ;
#63 = AXIS2_PLACEMENT_3D ( 'NONE', #270, #298, #272 ) ;
#64 = ORIENTED_EDGE ( 'NONE', *, *, #285, .T. ) ;
#65 = EDGE_LOOP ( 'NONE', ( #158, #185 ) ) ;
#66 = ORIENTED_EDGE ( 'NONE', *, *, #117, .F. ) ;
#67 = EDGE_LOOP ( 'NONE', ( #135, #41, #210, #262 ) ) ;
#68 = ORIENTED_EDGE ( 'NONE', *, *, #17, .T. ) ;
#69 = CARTESIAN_POINT ( 'NONE',  ( 0.000000000000000000, 0.000000000000000000, 5.199999999999982414 ) ) ;
#70 = EDGE_CURVE ( 'NONE', #166, #186, #12, .T. ) ;
#71 = LINE ( 'NONE', #170, #194 ) ;
#72 = DIRECTION ( 'NONE',  ( 0.000000000000000000, 0.000000000000000000, 1.000000000000000000 ) ) ;
#73 = APPROVAL_STATUS ( 'not_yet_approved' ) ;
#74 = DIRECTION ( 'NONE',  ( 0.000000000000000000, 0.000000000000000000, 1.000000000000000000 ) ) ;
#75 = VECTOR ( 'NONE', #58, 1000.000000000000000 ) ;
#76 = CALENDAR_DATE ( 2022, 7, 7 ) ;
#77 = CARTESIAN_POINT ( 'NONE',  ( 4.000000000000000000, 4.898587196589412829E-16, 320.0000000000000000 ) ) ;
#78 = APPROVAL_ROLE ( '' ) ;
#79 = DIRECTION ( 'NONE',  ( 0.000000000000000000, 0.000000000000000000, 1.000000000000000000 ) ) ;
#80 = ADVANCED_FACE ( 'NONE', ( #90 ), #138, .T. ) ;
#81 = PERSON_AND_ORGANIZATION_ROLE ( 'classification_officer' ) ;
#82 = ORIENTED_EDGE ( 'NONE', *, *, #263, .F. ) ;
#83 = DATE_AND_TIME ( #300, #208 ) ;
#84 = APPLICATION_CONTEXT ( 'configuration controlled 3d designs of mechanical parts and assemblies' ) ;
#85 = EDGE_CURVE ( 'NONE', #186, #19, #3, .T. ) ;
#86 = LOCAL_TIME ( 12, 2, 48.00000000000000000, #205 ) ;
#87 = ORIENTED_EDGE ( 'NONE', *, *, #209, .F. ) ;
#88 = CARTESIAN_POINT ( 'NONE',  ( 0.000000000000000000, 0.000000000000000000, 5.000000000000000000 ) ) ;
#89 = ADVANCED_FACE ( 'NONE', ( #119 ), #144, .T. ) ;
#90 = FACE_OUTER_BOUND ( 'NONE', #157, .T. ) ;
#91 = EDGE_LOOP ( 'NONE', ( #93, #114, #179, #40 ) ) ;
#92 = PRODUCT_DEFINITION_FORMATION_WITH_SPECIFIED_SOURCE ( 'LIBOVOLNÝ', '', #50, .NOT_KNOWN. ) ;
#93 = ORIENTED_EDGE ( 'NONE', *, *, #17, .F. ) ;
#94 = EDGE_CURVE ( 'NONE', #186, #166, #111, .T. ) ;
#95 = DIRECTION ( 'NONE',  ( 0.000000000000000000, 0.000000000000000000, -1.000000000000000000 ) ) ;
#96 = LINE ( 'NONE', #176, #75 ) ;
#97 = AXIS2_PLACEMENT_3D ( 'NONE', #153, #243, #121 ) ;
#98 = CYLINDRICAL_SURFACE ( 'NONE', #42, 4.000000000000000000 ) ;
#99 = CC_DESIGN_DATE_AND_TIME_ASSIGNMENT ( #155, #230, ( #2 ) ) ;
#100 = CYLINDRICAL_SURFACE ( 'NONE', #174, 7.000000000000000000 ) ;
#101 = CALENDAR_DATE ( 2022, 7, 7 ) ;
#102 = CARTESIAN_POINT ( 'NONE',  ( 0.000000000000000000, 0.000000000000000000, 320.0000000000000000 ) ) ;
#103 = PERSON_AND_ORGANIZATION ( #45, #180 ) ;
#104 = FACE_OUTER_BOUND ( 'NONE', #65, .T. ) ;
#105 = APPROVAL ( #73, 'NEURÈENÝ' ) ;
#106 = ORIENTED_EDGE ( 'NONE', *, *, #283, .T. ) ;
#107 = APPROVAL_ROLE ( '' ) ;
#108 = AXIS2_PLACEMENT_3D ( 'NONE', #88, #284, #212 ) ;
#109 = ADVANCED_FACE ( 'NONE', ( #139 ), #287, .F. ) ;
#110 = ORIENTED_EDGE ( 'NONE', *, *, #151, .T. ) ;
#111 = CIRCLE ( 'NONE', #222, 7.000000000000000000 ) ;
#112 = ORIENTED_EDGE ( 'NONE', *, *, #283, .F. ) ;
#113 = ADVANCED_FACE ( 'NONE', ( #165 ), #98, .T. ) ;
#114 = ORIENTED_EDGE ( 'NONE', *, *, #188, .T. ) ;
#115 = DIRECTION ( 'NONE',  ( 0.000000000000000000, 0.000000000000000000, 1.000000000000000000 ) ) ;
#116 = CARTESIAN_POINT ( 'NONE',  ( 0.000000000000000000, 0.000000000000000000, 5.000000000000000000 ) ) ;
#117 = EDGE_CURVE ( 'NONE', #286, #257, #268, .T. ) ;
#118 = CIRCLE ( 'NONE', #137, 0.1999999999999996503 ) ;
#119 = FACE_OUTER_BOUND ( 'NONE', #1, .T. ) ;
#120 = DIRECTION ( 'NONE',  ( -0.000000000000000000, -0.000000000000000000, -1.000000000000000000 ) ) ;
#121 = DIRECTION ( 'NONE',  ( 1.000000000000000000, 0.000000000000000000, 0.000000000000000000 ) ) ;
#122 = DIRECTION ( 'NONE',  ( -0.000000000000000000, -0.000000000000000000, -1.000000000000000000 ) ) ;
#123 = CIRCLE ( 'NONE', #133, 4.000000000000000000 ) ;
#124 = DESIGN_CONTEXT ( 'detailed design', #218, 'design' ) ;
#125 = DIRECTION ( 'NONE',  ( 1.000000000000000000, 0.000000000000000000, 0.000000000000000000 ) ) ;
#126 = APPROVAL_DATE_TIME ( #267, #105 ) ;
#127 = DIRECTION ( 'NONE',  ( 1.000000000000000000, 0.000000000000000000, -0.000000000000000000 ) ) ;
#128 = CARTESIAN_POINT ( 'NONE',  ( 0.000000000000000000, 0.000000000000000000, 0.000000000000000000 ) ) ;
#129 = VECTOR ( 'NONE', #242, 1000.000000000000000 ) ;
#130 = CARTESIAN_POINT ( 'NONE',  ( 0.000000000000000000, 0.000000000000000000, 0.000000000000000000 ) ) ;
#131 = CIRCLE ( 'NONE', #207, 4.200000000000000178 ) ;
#132 = PERSON_AND_ORGANIZATION ( #45, #180 ) ;
#133 = AXIS2_PLACEMENT_3D ( 'NONE', #247, #79, #203 ) ;
#134 = ORIENTED_EDGE ( 'NONE', *, *, #94, .F. ) ;
#135 = ORIENTED_EDGE ( 'NONE', *, *, #188, .F. ) ;
#136 = EDGE_LOOP ( 'NONE', ( #234, #193 ) ) ;
#137 = AXIS2_PLACEMENT_3D ( 'NONE', #171, #56, #32 ) ;
#138 = CYLINDRICAL_SURFACE ( 'NONE', #108, 7.000000000000000000 ) ;
#139 = FACE_OUTER_BOUND ( 'NONE', #91, .T. ) ;
#140 = ADVANCED_FACE ( 'NONE', ( #57, #104 ), #226, .T. ) ;
#141 = DIRECTION ( 'NONE',  ( 1.000000000000000000, 0.000000000000000000, 0.000000000000000000 ) ) ;
#142 = AXIS2_PLACEMENT_3D ( 'NONE', #261, #305, #95 ) ;
#143 = PLANE ( 'NONE',  #167 ) ;
#144 = CYLINDRICAL_SURFACE ( 'NONE', #304, 4.000000000000000000 ) ;
#145 = PRODUCT_RELATED_PRODUCT_CATEGORY ( 'detail', '', ( #50 ) ) ;
#146 = CARTESIAN_POINT ( 'NONE',  ( 4.200000000000000178, 0.000000000000000000, 4.999999999999991118 ) ) ;
#147 = APPROVAL_DATE_TIME ( #83, #6 ) ;
#148 = CARTESIAN_POINT ( 'NONE',  ( 0.000000000000000000, 0.000000000000000000, 5.000000000000000000 ) ) ;
#149 = PERSON_AND_ORGANIZATION ( #45, #180 ) ;
#150 = DIRECTION ( 'NONE',  ( 1.000000000000000000, 0.000000000000000000, 0.000000000000000000 ) ) ;
#151 = EDGE_CURVE ( 'NONE', #159, #233, #183, .T. ) ;
#152 = DATE_AND_TIME ( #297, #86 ) ;
#153 = CARTESIAN_POINT ( 'NONE',  ( 0.000000000000000000, 0.000000000000000000, 0.000000000000000000 ) ) ;
#154 = PERSON_AND_ORGANIZATION_ROLE ( 'design_owner' ) ;
#155 = DATE_AND_TIME ( #101, #289 ) ;
#156 = EDGE_LOOP ( 'NONE', ( #87, #214 ) ) ;
#157 = EDGE_LOOP ( 'NONE', ( #169, #134, #238, #253 ) ) ;
#158 = ORIENTED_EDGE ( 'NONE', *, *, #94, .T. ) ;
#159 = VERTEX_POINT ( 'NONE', #5 ) ;
#160 = EDGE_CURVE ( 'NONE', #257, #286, #123, .T. ) ;
#161 = AXIS2_PLACEMENT_3D ( 'NONE', #259, #49, #150 ) ;
#162 = ORIENTED_EDGE ( 'NONE', *, *, #275, .T. ) ;
#163 = LOCAL_TIME ( 12, 2, 48.00000000000000000, #29 ) ;
#164 = DIRECTION ( 'NONE',  ( -1.000000000000000000, 0.000000000000000000, 0.000000000000000000 ) ) ;
#165 = FACE_OUTER_BOUND ( 'NONE', #280, .T. ) ;
#166 = VERTEX_POINT ( 'NONE', #8 ) ;
#167 = AXIS2_PLACEMENT_3D ( 'NONE', #47, #240, #22 ) ;
#168 = AXIS2_PLACEMENT_3D ( 'NONE', #173, #74, #125 ) ;
#169 = ORIENTED_EDGE ( 'NONE', *, *, #285, .F. ) ;
#170 = CARTESIAN_POINT ( 'NONE',  ( 7.000000000000000000, 8.572527594031473190E-16, 5.000000000000000000 ) ) ;
#171 = CARTESIAN_POINT ( 'NONE',  ( -4.200000000000000178, 5.143516556418882928E-16, 5.199999999999982414 ) ) ;
#172 = MECHANICAL_CONTEXT ( 'NONE', #84, 'mechanical' ) ;
#173 = CARTESIAN_POINT ( 'NONE',  ( 0.000000000000000000, 0.000000000000000000, 5.199999999999982414 ) ) ;
#174 = AXIS2_PLACEMENT_3D ( 'NONE', #199, #122, #177 ) ;
#175 = DATE_TIME_ROLE ( 'classification_date' ) ;
#176 = CARTESIAN_POINT ( 'NONE',  ( -4.000000000000000000, 0.000000000000000000, 320.0000000000000000 ) ) ;
#177 = DIRECTION ( 'NONE',  ( -1.000000000000000000, 0.000000000000000000, 0.000000000000000000 ) ) ;
#178 = DATE_AND_TIME ( #76, #184 ) ;
#179 = ORIENTED_EDGE ( 'NONE', *, *, #55, .F. ) ;
#180 = ORGANIZATION ( 'NEURÈENÝ', 'NEURÈENÝ', '' ) ;
#181 = PERSON_AND_ORGANIZATION ( #45, #180 ) ;
#182 = VERTEX_POINT ( 'NONE', #244 ) ;
#183 = CIRCLE ( 'NONE', #168, 4.000000000000000000 ) ;
#184 = LOCAL_TIME ( 12, 2, 48.00000000000000000, #34 ) ;
#185 = ORIENTED_EDGE ( 'NONE', *, *, #70, .T. ) ;
#186 = VERTEX_POINT ( 'NONE', #33 ) ;
#187 = FACE_OUTER_BOUND ( 'NONE', #211, .T. ) ;
#188 = EDGE_CURVE ( 'NONE', #233, #182, #118, .T. ) ;
#189 = CIRCLE ( 'NONE', #97, 7.000000000000000000 ) ;
#190 = CC_DESIGN_APPROVAL ( #6, ( #195 ) ) ;
#191 = CARTESIAN_POINT ( 'NONE',  ( 7.000000000000000000, 8.572527594031473190E-16, 0.000000000000000000 ) ) ;
#192 = EDGE_LOOP ( 'NONE', ( #302, #64, #162, #216 ) ) ;
#193 = ORIENTED_EDGE ( 'NONE', *, *, #204, .T. ) ;
#194 = VECTOR ( 'NONE', #264, 1000.000000000000000 ) ;
#195 = SECURITY_CLASSIFICATION ( '', '', #299 ) ;
#196 = CARTESIAN_POINT ( 'NONE',  ( 4.000000000000000000, 4.898587196589412829E-16, 320.0000000000000000 ) ) ;
#197 = DIRECTION ( 'NONE',  ( -0.000000000000000000, -0.000000000000000000, -1.000000000000000000 ) ) ;
#198 = ADVANCED_FACE ( 'NONE', ( #228 ), #266, .F. ) ;
#199 = CARTESIAN_POINT ( 'NONE',  ( 0.000000000000000000, 0.000000000000000000, 5.000000000000000000 ) ) ;
#200 = APPROVAL_DATE_TIME ( #152, #252 ) ;
#201 = CARTESIAN_POINT ( 'NONE',  ( 0.000000000000000000, 0.000000000000000000, 5.000000000000000000 ) ) ;
#202 = DIRECTION ( 'NONE',  ( 1.000000000000000000, 0.000000000000000000, 0.000000000000000000 ) ) ;
#203 = DIRECTION ( 'NONE',  ( 1.000000000000000000, 0.000000000000000000, 0.000000000000000000 ) ) ;
#204 = EDGE_CURVE ( 'NONE', #182, #288, #131, .T. ) ;
#205 = COORDINATED_UNIVERSAL_TIME_OFFSET ( 1, 0, .AHEAD. ) ;
#206 = COORDINATED_UNIVERSAL_TIME_OFFSET ( 1, 0, .AHEAD. ) ;
#207 = AXIS2_PLACEMENT_3D ( 'NONE', #201, #13, #28 ) ;
#208 = LOCAL_TIME ( 12, 2, 48.00000000000000000, #206 ) ;
#209 = EDGE_CURVE ( 'NONE', #19, #51, #20, .T. ) ;
#210 = ORIENTED_EDGE ( 'NONE', *, *, #23, .T. ) ;
#211 = EDGE_LOOP ( 'NONE', ( #18, #254 ) ) ;
#212 = DIRECTION ( 'NONE',  ( -1.000000000000000000, 0.000000000000000000, 0.000000000000000000 ) ) ;
#213 = CC_DESIGN_PERSON_AND_ORGANIZATION_ASSIGNMENT ( #250, #81, ( #195 ) ) ;
#214 = ORIENTED_EDGE ( 'NONE', *, *, #275, .F. ) ;
#215 = TOROIDAL_SURFACE ( 'NONE', #63, 4.200000000000000178, 0.2000000000000000111 ) ;
#216 = ORIENTED_EDGE ( 'NONE', *, *, #85, .F. ) ;
#217 = DIRECTION ( 'NONE',  ( 0.000000000000000000, 0.000000000000000000, 1.000000000000000000 ) ) ;
#218 = APPLICATION_CONTEXT ( 'configuration controlled 3d designs of mechanical parts and assemblies' ) ;
#219 = ADVANCED_FACE ( 'NONE', ( #10 ), #100, .T. ) ;
#220 = PRODUCT_DEFINITION_SHAPE ( 'NONE', 'NONE',  #2 ) ;
#221 = LINE ( 'NONE', #196, #295 ) ;
#222 = AXIS2_PLACEMENT_3D ( 'NONE', #258, #48, #26 ) ;
#223 = DIRECTION ( 'NONE',  ( -1.000000000000000000, 0.000000000000000000, 0.000000000000000000 ) ) ;
#224 = DIRECTION ( 'NONE',  ( 1.000000000000000000, 0.000000000000000000, 0.000000000000000000 ) ) ;
#225 = COORDINATED_UNIVERSAL_TIME_OFFSET ( 1, 0, .AHEAD. ) ;
#226 = PLANE ( 'NONE',  #251 ) ;
#227 = PERSON_AND_ORGANIZATION_ROLE ( 'creator' ) ;
#228 = FACE_OUTER_BOUND ( 'NONE', #156, .T. ) ;
#229 = CC_DESIGN_SECURITY_CLASSIFICATION ( #195, ( #92 ) ) ;
#230 = DATE_TIME_ROLE ( 'creation_date' ) ;
#231 =( NAMED_UNIT ( * ) PLANE_ANGLE_UNIT ( ) SI_UNIT ( $, .RADIAN. ) );
#232 = PERSON_AND_ORGANIZATION_ROLE ( 'creator' ) ;
#233 = VERTEX_POINT ( 'NONE', #293 ) ;
#234 = ORIENTED_EDGE ( 'NONE', *, *, #55, .T. ) ;
#235 = AXIS2_PLACEMENT_3D ( 'NONE', #24, #115, #141 ) ;
#236 = CC_DESIGN_DATE_AND_TIME_ASSIGNMENT ( #178, #175, ( #195 ) ) ;
#237 = DIRECTION ( 'NONE',  ( 1.000000000000000000, 0.000000000000000000, 0.000000000000000000 ) ) ;
#238 = ORIENTED_EDGE ( 'NONE', *, *, #85, .T. ) ;
#239 = AXIS2_PLACEMENT_3D ( 'NONE', #69, #217, #4 ) ;
#240 = DIRECTION ( 'NONE',  ( 0.000000000000000000, 0.000000000000000000, 1.000000000000000000 ) ) ;
#241 =( GEOMETRIC_REPRESENTATION_CONTEXT ( 3 ) GLOBAL_UNCERTAINTY_ASSIGNED_CONTEXT ( ( #54 ) ) GLOBAL_UNIT_ASSIGNED_CONTEXT ( ( #37, #231, #59 ) ) REPRESENTATION_CONTEXT ( 'NONE', 'WORKASPACE' ) );
#242 = DIRECTION ( 'NONE',  ( -0.000000000000000000, -0.000000000000000000, -1.000000000000000000 ) ) ;
#243 = DIRECTION ( 'NONE',  ( 0.000000000000000000, 0.000000000000000000, 1.000000000000000000 ) ) ;
#244 = CARTESIAN_POINT ( 'NONE',  ( -4.200000000000000178, 5.143516556418882928E-16, 4.999999999999991118 ) ) ;
#245 = SHAPE_DEFINITION_REPRESENTATION ( #220, #61 ) ;
#246 = DIRECTION ( 'NONE',  ( 0.000000000000000000, 0.000000000000000000, 1.000000000000000000 ) ) ;
#247 = CARTESIAN_POINT ( 'NONE',  ( 0.000000000000000000, 0.000000000000000000, 320.0000000000000000 ) ) ;
#248 = CARTESIAN_POINT ( 'NONE',  ( 0.000000000000000000, 0.000000000000000000, 0.000000000000000000 ) ) ;
#249 = CIRCLE ( 'NONE', #44, 4.200000000000000178 ) ;
#250 = PERSON_AND_ORGANIZATION ( #45, #180 ) ;
#251 = AXIS2_PLACEMENT_3D ( 'NONE', #148, #72, #274 ) ;
#252 = APPROVAL ( #15, 'NEURÈENÝ' ) ;
#253 = ORIENTED_EDGE ( 'NONE', *, *, #209, .T. ) ;
#254 = ORIENTED_EDGE ( 'NONE', *, *, #160, .T. ) ;
#255 = CC_DESIGN_APPROVAL ( #252, ( #92 ) ) ;
#256 = CLOSED_SHELL ( 'NONE', ( #109, #89, #219, #80, #140, #198, #113, #43, #260 ) ) ;
#257 = VERTEX_POINT ( 'NONE', #77 ) ;
#258 = CARTESIAN_POINT ( 'NONE',  ( 0.000000000000000000, 0.000000000000000000, 5.000000000000000000 ) ) ;
#259 = CARTESIAN_POINT ( 'NONE',  ( 0.000000000000000000, 0.000000000000000000, 5.199999999999982414 ) ) ;
#260 = ADVANCED_FACE ( 'NONE', ( #60 ), #215, .F. ) ;
#261 = CARTESIAN_POINT ( 'NONE',  ( 4.200000000000000178, 0.000000000000000000, 5.199999999999982414 ) ) ;
#262 = ORIENTED_EDGE ( 'NONE', *, *, #204, .F. ) ;
#263 = EDGE_CURVE ( 'NONE', #286, #233, #96, .T. ) ;
#264 = DIRECTION ( 'NONE',  ( -0.000000000000000000, -0.000000000000000000, -1.000000000000000000 ) ) ;
#265 = CC_DESIGN_PERSON_AND_ORGANIZATION_ASSIGNMENT ( #294, #273, ( #92 ) ) ;
#266 = PLANE ( 'NONE',  #35 ) ;
#267 = DATE_AND_TIME ( #9, #163 ) ;
#268 = CIRCLE ( 'NONE', #7, 4.000000000000000000 ) ;
#269 = APPROVAL_PERSON_ORGANIZATION ( #181, #252, #78 ) ;
#270 = CARTESIAN_POINT ( 'NONE',  ( 0.000000000000000000, 0.000000000000000000, 5.199999999999982414 ) ) ;
#271 = DIRECTION ( 'NONE',  ( 0.000000000000000000, 0.000000000000000000, 1.000000000000000000 ) ) ;
#272 = DIRECTION ( 'NONE',  ( 1.000000000000000000, 0.000000000000000000, 0.000000000000000000 ) ) ;
#273 = PERSON_AND_ORGANIZATION_ROLE ( 'design_supplier' ) ;
#274 = DIRECTION ( 'NONE',  ( 1.000000000000000000, 0.000000000000000000, -0.000000000000000000 ) ) ;
#275 = EDGE_CURVE ( 'NONE', #51, #19, #189, .T. ) ;
#276 = APPROVAL_STATUS ( 'not_yet_approved' ) ;
#277 = APPLICATION_PROTOCOL_DEFINITION ( 'international standard', 'config_control_design', 1994, #218 ) ;
#278 = CIRCLE ( 'NONE', #142, 0.1999999999999996503 ) ;
#279 = CC_DESIGN_APPROVAL ( #105, ( #2 ) ) ;
#280 = EDGE_LOOP ( 'NONE', ( #112, #66, #303, #68 ) ) ;
#281 = CARTESIAN_POINT ( 'NONE',  ( -7.000000000000000000, 0.000000000000000000, 5.000000000000000000 ) ) ;
#282 = DIRECTION ( 'NONE',  ( -0.000000000000000000, -0.000000000000000000, -1.000000000000000000 ) ) ;
#283 = EDGE_CURVE ( 'NONE', #257, #159, #221, .T. ) ;
#284 = DIRECTION ( 'NONE',  ( -0.000000000000000000, -0.000000000000000000, -1.000000000000000000 ) ) ;
#285 = EDGE_CURVE ( 'NONE', #166, #51, #71, .T. ) ;
#286 = VERTEX_POINT ( 'NONE', #53 ) ;
#287 = TOROIDAL_SURFACE ( 'NONE', #161, 4.200000000000000178, 0.2000000000000000111 ) ;
#288 = VERTEX_POINT ( 'NONE', #146 ) ;
#289 = LOCAL_TIME ( 12, 2, 48.00000000000000000, #225 ) ;
#290 = DIRECTION ( 'NONE',  ( -0.000000000000000000, -0.000000000000000000, -1.000000000000000000 ) ) ;
#291 = DIRECTION ( 'NONE',  ( 1.000000000000000000, 0.000000000000000000, 0.000000000000000000 ) ) ;
#292 = APPROVAL_ROLE ( '' ) ;
#293 = CARTESIAN_POINT ( 'NONE',  ( -4.000000000000000000, 0.000000000000000000, 5.199999999999982414 ) ) ;
#294 = PERSON_AND_ORGANIZATION ( #45, #180 ) ;
#295 = VECTOR ( 'NONE', #290, 1000.000000000000000 ) ;
#296 = DIRECTION ( 'NONE',  ( 0.000000000000000000, 0.000000000000000000, 1.000000000000000000 ) ) ;
#297 = CALENDAR_DATE ( 2022, 7, 7 ) ;
#298 = DIRECTION ( 'NONE',  ( 0.000000000000000000, 0.000000000000000000, 1.000000000000000000 ) ) ;
#299 = SECURITY_CLASSIFICATION_LEVEL ( 'unclassified' ) ;
#300 = CALENDAR_DATE ( 2022, 7, 7 ) ;
#301 = APPROVAL_PERSON_ORGANIZATION ( #132, #105, #292 ) ;
#302 = ORIENTED_EDGE ( 'NONE', *, *, #70, .F. ) ;
#303 = ORIENTED_EDGE ( 'NONE', *, *, #263, .T. ) ;
#304 = AXIS2_PLACEMENT_3D ( 'NONE', #21, #282, #164 ) ;
#305 = DIRECTION ( 'NONE',  ( 0.000000000000000000, -1.000000000000000000, 0.000000000000000000 ) ) ;
#306 = CC_DESIGN_PERSON_AND_ORGANIZATION_ASSIGNMENT ( #11, #232, ( #2 ) ) ;
#307 = ORIENTED_EDGE ( 'NONE', *, *, #160, .F. ) ;
ENDSEC;
END-ISO-10303-21;
