ISO-10303-21;
HEADER;
FILE_DESCRIPTION (( 'STEP AP203' ),
    '1' );
FILE_NAME ('a59d.STEP',
    '2022-07-07T10:14:57',
    ( '' ),
    ( '' ),
    'SwSTEP 2.0',
    'SolidWorks 2019',
    '' );
FILE_SCHEMA (( 'CONFIG_CONTROL_DESIGN' ));
ENDSEC;

DATA;
#1 = CARTESIAN_POINT ( 'NONE',  ( 5.000000000000000000, 6.123233995736766282E-16, 3.000000000000000000 ) ) ;
#2 = EDGE_CURVE ( 'NONE', #232, #220, #11, .T. ) ;
#3 = DIRECTION ( 'NONE',  ( 1.000000000000000000, 0.000000000000000000, 0.000000000000000000 ) ) ;
#4 = FACE_OUTER_BOUND ( 'NONE', #66, .T. ) ;
#5 = CARTESIAN_POINT ( 'NONE',  ( 0.000000000000000000, 0.000000000000000000, 403.0000000000000000 ) ) ;
#6 = ORIENTED_EDGE ( 'NONE', *, *, #134, .T. ) ;
#7 = DIRECTION ( 'NONE',  ( -0.000000000000000000, -0.000000000000000000, -1.000000000000000000 ) ) ;
#8 = APPLICATION_PROTOCOL_DEFINITION ( 'international standard', 'config_control_design', 1994, #38 ) ;
#9 = CC_DESIGN_PERSON_AND_ORGANIZATION_ASSIGNMENT ( #178, #205, ( #51 ) ) ;
#10 = LINE ( 'NONE', #218, #188 ) ;
#11 = CIRCLE ( 'NONE', #242, 5.000000000000000000 ) ;
#12 = COORDINATED_UNIVERSAL_TIME_OFFSET ( 1, 0, .AHEAD. ) ;
#13 = COORDINATED_UNIVERSAL_TIME_OFFSET ( 1, 0, .AHEAD. ) ;
#14 = EDGE_CURVE ( 'NONE', #302, #281, #170, .T. ) ;
#15 = PERSON_AND_ORGANIZATION ( #201, #193 ) ;
#16 = VECTOR ( 'NONE', #95, 1000.000000000000000 ) ;
#17 = VERTEX_POINT ( 'NONE', #254 ) ;
#18 = VECTOR ( 'NONE', #171, 1000.000000000000000 ) ;
#19 = CARTESIAN_POINT ( 'NONE',  ( 0.000000000000000000, 0.000000000000000000, 0.000000000000000000 ) ) ;
#20 = ORIENTED_EDGE ( 'NONE', *, *, #265, .T. ) ;
#21 = DIRECTION ( 'NONE',  ( 0.000000000000000000, 0.000000000000000000, 1.000000000000000000 ) ) ;
#22 = DIRECTION ( 'NONE',  ( 0.000000000000000000, 0.000000000000000000, 1.000000000000000000 ) ) ;
#23 = DIRECTION ( 'NONE',  ( 1.000000000000000000, 0.000000000000000000, 0.000000000000000000 ) ) ;
#24 = VECTOR ( 'NONE', #165, 1000.000000000000000 ) ;
#25 = DIRECTION ( 'NONE',  ( 0.000000000000000000, 0.000000000000000000, 1.000000000000000000 ) ) ;
#26 = EDGE_CURVE ( 'NONE', #281, #302, #50, .T. ) ;
#27 = ORIENTED_EDGE ( 'NONE', *, *, #168, .F. ) ;
#28 = FACE_OUTER_BOUND ( 'NONE', #45, .T. ) ;
#29 = DIRECTION ( 'NONE',  ( 0.000000000000000000, 0.000000000000000000, 1.000000000000000000 ) ) ;
#30 = DIRECTION ( 'NONE',  ( 1.000000000000000000, 0.000000000000000000, 0.000000000000000000 ) ) ;
#31 = PERSON_AND_ORGANIZATION_ROLE ( 'design_owner' ) ;
#32 = EDGE_CURVE ( 'NONE', #142, #117, #297, .T. ) ;
#33 = DIRECTION ( 'NONE',  ( 0.000000000000000000, 0.000000000000000000, 1.000000000000000000 ) ) ;
#34 = SHAPE_DEFINITION_REPRESENTATION ( #307, #237 ) ;
#35 = TOROIDAL_SURFACE ( 'NONE', #286, 2.949999999999999734, 0.2000000000000000111 ) ;
#36 = PRODUCT_DEFINITION ( 'NEZNÁMÝ', '', #51, #287 ) ;
#37 = COORDINATED_UNIVERSAL_TIME_OFFSET ( 1, 0, .AHEAD. ) ;
#38 = APPLICATION_CONTEXT ( 'configuration controlled 3d designs of mechanical parts and assemblies' ) ;
#39 = APPROVAL_ROLE ( '' ) ;
#40 = AXIS2_PLACEMENT_3D ( 'NONE', #192, #215, #72 ) ;
#41 = CC_DESIGN_DATE_AND_TIME_ASSIGNMENT ( #294, #154, ( #115 ) ) ;
#42 = EDGE_LOOP ( 'NONE', ( #122, #46, #260, #194 ) ) ;
#43 = ORIENTED_EDGE ( 'NONE', *, *, #14, .T. ) ;
#44 = AXIS2_PLACEMENT_3D ( 'NONE', #137, #89, #184 ) ;
#45 = EDGE_LOOP ( 'NONE', ( #166, #69, #43, #71 ) ) ;
#46 = ORIENTED_EDGE ( 'NONE', *, *, #133, .F. ) ;
#47 = DIRECTION ( 'NONE',  ( 1.000000000000000000, 0.000000000000000000, 0.000000000000000000 ) ) ;
#48 = EDGE_LOOP ( 'NONE', ( #53, #212, #6, #279 ) ) ;
#49 =( LENGTH_UNIT ( ) NAMED_UNIT ( * ) SI_UNIT ( .MILLI., .METRE. ) );
#50 = CIRCLE ( 'NONE', #305, 5.000000000000000000 ) ;
#51 = PRODUCT_DEFINITION_FORMATION_WITH_SPECIFIED_SOURCE ( 'LIBOVOLNÝ', '', #167, .NOT_KNOWN. ) ;
#52 = APPLICATION_CONTEXT ( 'configuration controlled 3d designs of mechanical parts and assemblies' ) ;
#53 = ORIENTED_EDGE ( 'NONE', *, *, #230, .F. ) ;
#54 = CARTESIAN_POINT ( 'NONE',  ( -2.949999999999999734, 3.612708057484692097E-16, 2.999999999999990674 ) ) ;
#55 = DIRECTION ( 'NONE',  ( -0.000000000000000000, -0.000000000000000000, -1.000000000000000000 ) ) ;
#56 = DIRECTION ( 'NONE',  ( 0.000000000000000000, 0.000000000000000000, 1.000000000000000000 ) ) ;
#57 = AXIS2_PLACEMENT_3D ( 'NONE', #216, #55, #241 ) ;
#58 = CC_DESIGN_PERSON_AND_ORGANIZATION_ASSIGNMENT ( #84, #222, ( #36 ) ) ;
#59 = CC_DESIGN_APPROVAL ( #197, ( #51 ) ) ;
#60 = APPROVAL_STATUS ( 'not_yet_approved' ) ;
#61 = CARTESIAN_POINT ( 'NONE',  ( 2.750000000000000000, 3.367778697655221012E-16, 3.199999999999980638 ) ) ;
#62 = ADVANCED_FACE ( 'NONE', ( #231 ), #116, .F. ) ;
#63 = AXIS2_PLACEMENT_3D ( 'NONE', #169, #25, #233 ) ;
#64 = CC_DESIGN_APPROVAL ( #136, ( #115 ) ) ;
#65 = ORIENTED_EDGE ( 'NONE', *, *, #255, .T. ) ;
#66 = EDGE_LOOP ( 'NONE', ( #150, #20 ) ) ;
#67 = CLOSED_SHELL ( 'NONE', ( #157, #113, #203, #145, #112, #62, #83, #163, #219 ) ) ;
#68 = DIRECTION ( 'NONE',  ( 0.000000000000000000, 0.000000000000000000, 1.000000000000000000 ) ) ;
#69 = ORIENTED_EDGE ( 'NONE', *, *, #230, .T. ) ;
#70 = DIRECTION ( 'NONE',  ( 0.000000000000000000, 0.000000000000000000, 1.000000000000000000 ) ) ;
#71 = ORIENTED_EDGE ( 'NONE', *, *, #134, .F. ) ;
#72 = DIRECTION ( 'NONE',  ( 1.000000000000000000, 0.000000000000000000, 0.000000000000000000 ) ) ;
#73 = APPROVAL_PERSON_ORGANIZATION ( #15, #181, #39 ) ;
#74 = DIRECTION ( 'NONE',  ( 1.000000000000000000, 0.000000000000000000, -0.000000000000000000 ) ) ;
#75 = DIRECTION ( 'NONE',  ( 0.000000000000000000, 0.000000000000000000, 1.000000000000000000 ) ) ;
#76 = EDGE_CURVE ( 'NONE', #220, #232, #257, .T. ) ;
#77 = DIRECTION ( 'NONE',  ( -1.000000000000000000, 0.000000000000000000, 0.000000000000000000 ) ) ;
#78 = APPROVAL_DATE_TIME ( #248, #197 ) ;
#79 = AXIS2_PLACEMENT_3D ( 'NONE', #129, #293, #77 ) ;
#80 = DIRECTION ( 'NONE',  ( 0.000000000000000000, 0.000000000000000000, 1.000000000000000000 ) ) ;
#81 = CALENDAR_DATE ( 2022, 7, 7 ) ;
#82 = DIRECTION ( 'NONE',  ( 1.000000000000000000, 0.000000000000000000, 0.000000000000000000 ) ) ;
#83 = ADVANCED_FACE ( 'NONE', ( #106 ), #172, .T. ) ;
#84 = PERSON_AND_ORGANIZATION ( #201, #193 ) ;
#85 = PERSON_AND_ORGANIZATION ( #201, #193 ) ;
#86 = CIRCLE ( 'NONE', #125, 2.949999999999999734 ) ;
#87 = CC_DESIGN_PERSON_AND_ORGANIZATION_ASSIGNMENT ( #204, #174, ( #51 ) ) ;
#88 = AXIS2_PLACEMENT_3D ( 'NONE', #236, #22, #114 ) ;
#89 = DIRECTION ( 'NONE',  ( 0.000000000000000000, -1.000000000000000000, 0.000000000000000000 ) ) ;
#90 = CC_DESIGN_PERSON_AND_ORGANIZATION_ASSIGNMENT ( #152, #31, ( #167 ) ) ;
#91 = EDGE_LOOP ( 'NONE', ( #146, #101, #243, #27 ) ) ;
#92 = DIRECTION ( 'NONE',  ( 1.000000000000000000, 0.000000000000000000, 0.000000000000000000 ) ) ;
#93 = VERTEX_POINT ( 'NONE', #100 ) ;
#94 = AXIS2_PLACEMENT_3D ( 'NONE', #99, #70, #23 ) ;
#95 = DIRECTION ( 'NONE',  ( -0.000000000000000000, -0.000000000000000000, -1.000000000000000000 ) ) ;
#96 = LOCAL_TIME ( 12, 14, 57.00000000000000000, #12 ) ;
#97 = ORIENTED_EDGE ( 'NONE', *, *, #26, .F. ) ;
#98 = DIRECTION ( 'NONE',  ( -0.000000000000000000, -0.000000000000000000, -1.000000000000000000 ) ) ;
#99 = CARTESIAN_POINT ( 'NONE',  ( 0.000000000000000000, 0.000000000000000000, 3.199999999999980638 ) ) ;
#100 = CARTESIAN_POINT ( 'NONE',  ( -2.750000000000000000, 0.000000000000000000, 3.199999999999980638 ) ) ;
#101 = ORIENTED_EDGE ( 'NONE', *, *, #304, .T. ) ;
#102 = DIRECTION ( 'NONE',  ( 0.000000000000000000, 0.000000000000000000, 1.000000000000000000 ) ) ;
#103 = ORIENTED_EDGE ( 'NONE', *, *, #226, .F. ) ;
#104 = DIRECTION ( 'NONE',  ( 1.000000000000000000, 0.000000000000000000, -0.000000000000000000 ) ) ;
#105 = PERSON_AND_ORGANIZATION_ROLE ( 'classification_officer' ) ;
#106 = FACE_OUTER_BOUND ( 'NONE', #42, .T. ) ;
#107 = MANIFOLD_SOLID_BREP ( 'Zaoblit1', #67 ) ;
#108 = APPROVAL_ROLE ( '' ) ;
#109 = AXIS2_PLACEMENT_3D ( 'NONE', #148, #33, #179 ) ;
#110 = COORDINATED_UNIVERSAL_TIME_OFFSET ( 1, 0, .AHEAD. ) ;
#111 = AXIS2_PLACEMENT_3D ( 'NONE', #261, #21, #47 ) ;
#112 = ADVANCED_FACE ( 'NONE', ( #290, #200 ), #153, .T. ) ;
#113 = ADVANCED_FACE ( 'NONE', ( #198 ), #246, .T. ) ;
#114 = DIRECTION ( 'NONE',  ( 1.000000000000000000, 0.000000000000000000, 0.000000000000000000 ) ) ;
#115 = SECURITY_CLASSIFICATION ( '', '', #295 ) ;
#116 = PLANE ( 'NONE',  #225 ) ;
#117 = VERTEX_POINT ( 'NONE', #196 ) ;
#118 = CARTESIAN_POINT ( 'NONE',  ( 5.000000000000000000, 6.123233995736766282E-16, 0.000000000000000000 ) ) ;
#119 = EDGE_LOOP ( 'NONE', ( #258, #277, #103, #185 ) ) ;
#120 = CARTESIAN_POINT ( 'NONE',  ( -5.000000000000000000, 0.000000000000000000, 3.000000000000000000 ) ) ;
#121 = CARTESIAN_POINT ( 'NONE',  ( 0.000000000000000000, 0.000000000000000000, 3.000000000000000000 ) ) ;
#122 = ORIENTED_EDGE ( 'NONE', *, *, #304, .F. ) ;
#123 = CARTESIAN_POINT ( 'NONE',  ( 0.000000000000000000, 0.000000000000000000, 0.000000000000000000 ) ) ;
#124 = CYLINDRICAL_SURFACE ( 'NONE', #57, 5.000000000000000000 ) ;
#125 = AXIS2_PLACEMENT_3D ( 'NONE', #121, #238, #190 ) ;
#126 = DIRECTION ( 'NONE',  ( -1.000000000000000000, 0.000000000000000000, 0.000000000000000000 ) ) ;
#127 = CARTESIAN_POINT ( 'NONE',  ( -2.750000000000000000, 0.000000000000000000, 403.0000000000000000 ) ) ;
#128 = CALENDAR_DATE ( 2022, 7, 7 ) ;
#129 = CARTESIAN_POINT ( 'NONE',  ( 0.000000000000000000, 0.000000000000000000, 3.000000000000000000 ) ) ;
#130 = CIRCLE ( 'NONE', #149, 2.750000000000000000 ) ;
#131 = AXIS2_PLACEMENT_3D ( 'NONE', #177, #7, #147 ) ;
#132 = DATE_TIME_ROLE ( 'creation_date' ) ;
#133 = EDGE_CURVE ( 'NONE', #283, #17, #130, .T. ) ;
#134 = EDGE_CURVE ( 'NONE', #220, #281, #10, .T. ) ;
#135 = CARTESIAN_POINT ( 'NONE',  ( 0.000000000000000000, 0.000000000000000000, 0.000000000000000000 ) ) ;
#136 = APPROVAL ( #180, 'NEURÈENÝ' ) ;
#137 = CARTESIAN_POINT ( 'NONE',  ( 2.949999999999999734, 0.000000000000000000, 3.199999999999980638 ) ) ;
#138 = CC_DESIGN_SECURITY_CLASSIFICATION ( #115, ( #51 ) ) ;
#139 = EDGE_LOOP ( 'NONE', ( #160, #262, #164, #306 ) ) ;
#140 = DIRECTION ( 'NONE',  ( -1.000000000000000000, 1.224646799147353207E-16, 0.000000000000000000 ) ) ;
#141 = DIRECTION ( 'NONE',  ( 0.000000000000000000, 0.000000000000000000, 1.000000000000000000 ) ) ;
#142 = VERTEX_POINT ( 'NONE', #61 ) ;
#143 = CARTESIAN_POINT ( 'NONE',  ( -5.000000000000000000, 0.000000000000000000, 0.000000000000000000 ) ) ;
#144 = FACE_OUTER_BOUND ( 'NONE', #139, .T. ) ;
#145 = ADVANCED_FACE ( 'NONE', ( #240 ), #173, .T. ) ;
#146 = ORIENTED_EDGE ( 'NONE', *, *, #265, .F. ) ;
#147 = DIRECTION ( 'NONE',  ( -1.000000000000000000, 0.000000000000000000, 0.000000000000000000 ) ) ;
#148 = CARTESIAN_POINT ( 'NONE',  ( 0.000000000000000000, 0.000000000000000000, 3.000000000000000000 ) ) ;
#149 = AXIS2_PLACEMENT_3D ( 'NONE', #5, #29, #30 ) ;
#150 = ORIENTED_EDGE ( 'NONE', *, *, #133, .T. ) ;
#151 = CARTESIAN_POINT ( 'NONE',  ( -2.949999999999999734, 3.612708057484692097E-16, 3.199999999999980638 ) ) ;
#152 = PERSON_AND_ORGANIZATION ( #201, #193 ) ;
#153 = PLANE ( 'NONE',  #217 ) ;
#154 = DATE_TIME_ROLE ( 'classification_date' ) ;
#155 = CALENDAR_DATE ( 2022, 7, 7 ) ;
#156 = AXIS2_PLACEMENT_3D ( 'NONE', #285, #75, #74 ) ;
#157 = ADVANCED_FACE ( 'NONE', ( #195 ), #35, .F. ) ;
#158 = APPROVAL_ROLE ( '' ) ;
#159 = CIRCLE ( 'NONE', #227, 0.2000000000000000944 ) ;
#160 = ORIENTED_EDGE ( 'NONE', *, *, #209, .F. ) ;
#161 = ORIENTED_EDGE ( 'NONE', *, *, #76, .T. ) ;
#162 = CIRCLE ( 'NONE', #63, 2.750000000000000000 ) ;
#163 = ADVANCED_FACE ( 'NONE', ( #4 ), #271, .T. ) ;
#164 = ORIENTED_EDGE ( 'NONE', *, *, #32, .T. ) ;
#165 = DIRECTION ( 'NONE',  ( -0.000000000000000000, -0.000000000000000000, -1.000000000000000000 ) ) ;
#166 = ORIENTED_EDGE ( 'NONE', *, *, #2, .F. ) ;
#167 = PRODUCT ( 'a59d', 'a59d', '', ( #263 ) ) ;
#168 = EDGE_CURVE ( 'NONE', #283, #93, #266, .T. ) ;
#169 = CARTESIAN_POINT ( 'NONE',  ( 0.000000000000000000, 0.000000000000000000, 403.0000000000000000 ) ) ;
#170 = CIRCLE ( 'NONE', #88, 5.000000000000000000 ) ;
#171 = DIRECTION ( 'NONE',  ( -0.000000000000000000, -0.000000000000000000, -1.000000000000000000 ) ) ;
#172 = CYLINDRICAL_SURFACE ( 'NONE', #206, 2.750000000000000000 ) ;
#173 = CYLINDRICAL_SURFACE ( 'NONE', #79, 5.000000000000000000 ) ;
#174 = PERSON_AND_ORGANIZATION_ROLE ( 'design_supplier' ) ;
#175 = LOCAL_TIME ( 12, 14, 57.00000000000000000, #37 ) ;
#176 = CC_DESIGN_APPROVAL ( #181, ( #36 ) ) ;
#177 = CARTESIAN_POINT ( 'NONE',  ( 0.000000000000000000, 0.000000000000000000, 403.0000000000000000 ) ) ;
#178 = PERSON_AND_ORGANIZATION ( #201, #193 ) ;
#179 = DIRECTION ( 'NONE',  ( 1.000000000000000000, 0.000000000000000000, 0.000000000000000000 ) ) ;
#180 = APPROVAL_STATUS ( 'not_yet_approved' ) ;
#181 = APPROVAL ( #60, 'NEURÈENÝ' ) ;
#182 = LOCAL_TIME ( 12, 14, 57.00000000000000000, #110 ) ;
#183 = LOCAL_TIME ( 12, 14, 57.00000000000000000, #13 ) ;
#184 = DIRECTION ( 'NONE',  ( 0.000000000000000000, 0.000000000000000000, -1.000000000000000000 ) ) ;
#185 = ORIENTED_EDGE ( 'NONE', *, *, #32, .F. ) ;
#186 = CARTESIAN_POINT ( 'NONE',  ( -2.750000000000000000, 0.000000000000000000, 403.0000000000000000 ) ) ;
#187 = CARTESIAN_POINT ( 'NONE',  ( 0.000000000000000000, 0.000000000000000000, 3.000000000000000000 ) ) ;
#188 = VECTOR ( 'NONE', #289, 1000.000000000000000 ) ;
#189 = CIRCLE ( 'NONE', #111, 2.750000000000000000 ) ;
#190 = DIRECTION ( 'NONE',  ( 1.000000000000000000, 0.000000000000000000, 0.000000000000000000 ) ) ;
#191 = VERTEX_POINT ( 'NONE', #54 ) ;
#192 = CARTESIAN_POINT ( 'NONE',  ( 0.000000000000000000, 0.000000000000000000, 3.199999999999980638 ) ) ;
#193 = ORGANIZATION ( 'NEURÈENÝ', 'NEURÈENÝ', '' ) ;
#194 = ORIENTED_EDGE ( 'NONE', *, *, #274, .T. ) ;
#195 = FACE_OUTER_BOUND ( 'NONE', #119, .T. ) ;
#196 = CARTESIAN_POINT ( 'NONE',  ( 2.949999999999999734, 0.000000000000000000, 2.999999999999990674 ) ) ;
#197 = APPROVAL ( #202, 'NEURÈENÝ' ) ;
#198 = FACE_OUTER_BOUND ( 'NONE', #91, .T. ) ;
#199 = PERSON_AND_ORGANIZATION ( #201, #193 ) ;
#200 = FACE_OUTER_BOUND ( 'NONE', #208, .T. ) ;
#201 = PERSON ( 'NEURÈENÝ', 'NEURÈENÝ', 'NEURÈENÝ', ('NEURÈENÝ'), ('NEURÈENÝ'), ('NEURÈENÝ') ) ;
#202 = APPROVAL_STATUS ( 'not_yet_approved' ) ;
#203 = ADVANCED_FACE ( 'NONE', ( #28 ), #124, .T. ) ;
#204 = PERSON_AND_ORGANIZATION ( #201, #193 ) ;
#205 = PERSON_AND_ORGANIZATION_ROLE ( 'creator' ) ;
#206 = AXIS2_PLACEMENT_3D ( 'NONE', #244, #269, #126 ) ;
#207 = DIRECTION ( 'NONE',  ( 0.000000000000000000, 0.000000000000000000, 1.000000000000000000 ) ) ;
#208 = EDGE_LOOP ( 'NONE', ( #161, #300 ) ) ;
#209 = EDGE_CURVE ( 'NONE', #93, #191, #159, .T. ) ;
#210 = EDGE_LOOP ( 'NONE', ( #97, #256 ) ) ;
#211 = CARTESIAN_POINT ( 'NONE',  ( 2.750000000000000000, 3.367778697655221012E-16, 403.0000000000000000 ) ) ;
#212 = ORIENTED_EDGE ( 'NONE', *, *, #76, .F. ) ;
#213 = APPROVAL_PERSON_ORGANIZATION ( #199, #136, #158 ) ;
#214 = CARTESIAN_POINT ( 'NONE',  ( 5.000000000000000000, 6.123233995736766282E-16, 3.000000000000000000 ) ) ;
#215 = DIRECTION ( 'NONE',  ( 0.000000000000000000, 0.000000000000000000, 1.000000000000000000 ) ) ;
#216 = CARTESIAN_POINT ( 'NONE',  ( 0.000000000000000000, 0.000000000000000000, 3.000000000000000000 ) ) ;
#217 = AXIS2_PLACEMENT_3D ( 'NONE', #223, #102, #264 ) ;
#218 = CARTESIAN_POINT ( 'NONE',  ( -5.000000000000000000, 0.000000000000000000, 3.000000000000000000 ) ) ;
#219 = ADVANCED_FACE ( 'NONE', ( #144 ), #253, .F. ) ;
#220 = VERTEX_POINT ( 'NONE', #120 ) ;
#221 = DIRECTION ( 'NONE',  ( 1.224646799147353207E-16, 1.000000000000000000, -0.000000000000000000 ) ) ;
#222 = PERSON_AND_ORGANIZATION_ROLE ( 'creator' ) ;
#223 = CARTESIAN_POINT ( 'NONE',  ( 0.000000000000000000, 0.000000000000000000, 3.000000000000000000 ) ) ;
#224 = PERSON_AND_ORGANIZATION ( #201, #193 ) ;
#225 = AXIS2_PLACEMENT_3D ( 'NONE', #19, #80, #104 ) ;
#226 = EDGE_CURVE ( 'NONE', #117, #191, #268, .T. ) ;
#227 = AXIS2_PLACEMENT_3D ( 'NONE', #151, #221, #140 ) ;
#228 = LOCAL_TIME ( 12, 14, 57.00000000000000000, #247 ) ;
#229 = ORIENTED_EDGE ( 'NONE', *, *, #226, .T. ) ;
#230 = EDGE_CURVE ( 'NONE', #232, #302, #235, .T. ) ;
#231 = FACE_OUTER_BOUND ( 'NONE', #210, .T. ) ;
#232 = VERTEX_POINT ( 'NONE', #1 ) ;
#233 = DIRECTION ( 'NONE',  ( 1.000000000000000000, 0.000000000000000000, 0.000000000000000000 ) ) ;
#234 = DIRECTION ( 'NONE',  ( 1.000000000000000000, 0.000000000000000000, 0.000000000000000000 ) ) ;
#235 = LINE ( 'NONE', #214, #24 ) ;
#236 = CARTESIAN_POINT ( 'NONE',  ( 0.000000000000000000, 0.000000000000000000, 0.000000000000000000 ) ) ;
#237 = ADVANCED_BREP_SHAPE_REPRESENTATION ( 'a59d', ( #107, #298 ), #292 ) ;
#238 = DIRECTION ( 'NONE',  ( -0.000000000000000000, -0.000000000000000000, -1.000000000000000000 ) ) ;
#239 = EDGE_LOOP ( 'NONE', ( #229, #65 ) ) ;
#240 = FACE_OUTER_BOUND ( 'NONE', #48, .T. ) ;
#241 = DIRECTION ( 'NONE',  ( -1.000000000000000000, 0.000000000000000000, 0.000000000000000000 ) ) ;
#242 = AXIS2_PLACEMENT_3D ( 'NONE', #187, #141, #234 ) ;
#243 = ORIENTED_EDGE ( 'NONE', *, *, #276, .T. ) ;
#244 = CARTESIAN_POINT ( 'NONE',  ( 0.000000000000000000, 0.000000000000000000, 403.0000000000000000 ) ) ;
#245 = DATE_AND_TIME ( #128, #183 ) ;
#246 = CYLINDRICAL_SURFACE ( 'NONE', #131, 2.750000000000000000 ) ;
#247 = COORDINATED_UNIVERSAL_TIME_OFFSET ( 1, 0, .AHEAD. ) ;
#248 = DATE_AND_TIME ( #267, #182 ) ;
#249 = APPROVAL_PERSON_ORGANIZATION ( #224, #197, #108 ) ;
#250 = DATE_AND_TIME ( #155, #96 ) ;
#251 = PRODUCT_RELATED_PRODUCT_CATEGORY ( 'detail', '', ( #167 ) ) ;
#252 = CC_DESIGN_DATE_AND_TIME_ASSIGNMENT ( #250, #132, ( #36 ) ) ;
#253 = TOROIDAL_SURFACE ( 'NONE', #94, 2.949999999999999734, 0.2000000000000000111 ) ;
#254 = CARTESIAN_POINT ( 'NONE',  ( 2.750000000000000000, 3.367778697655221012E-16, 403.0000000000000000 ) ) ;
#255 = EDGE_CURVE ( 'NONE', #191, #117, #86, .T. ) ;
#256 = ORIENTED_EDGE ( 'NONE', *, *, #14, .F. ) ;
#257 = CIRCLE ( 'NONE', #109, 5.000000000000000000 ) ;
#258 = ORIENTED_EDGE ( 'NONE', *, *, #274, .F. ) ;
#259 = UNCERTAINTY_MEASURE_WITH_UNIT (LENGTH_MEASURE( 1.000000000000000082E-05 ), #49, 'distance_accuracy_value', 'NONE');
#260 = ORIENTED_EDGE ( 'NONE', *, *, #168, .T. ) ;
#261 = CARTESIAN_POINT ( 'NONE',  ( 0.000000000000000000, 0.000000000000000000, 3.199999999999980638 ) ) ;
#262 = ORIENTED_EDGE ( 'NONE', *, *, #276, .F. ) ;
#263 = MECHANICAL_CONTEXT ( 'NONE', #52, 'mechanical' ) ;
#264 = DIRECTION ( 'NONE',  ( 1.000000000000000000, 0.000000000000000000, -0.000000000000000000 ) ) ;
#265 = EDGE_CURVE ( 'NONE', #17, #283, #162, .T. ) ;
#266 = LINE ( 'NONE', #127, #18 ) ;
#267 = CALENDAR_DATE ( 2022, 7, 7 ) ;
#268 = CIRCLE ( 'NONE', #272, 2.949999999999999734 ) ;
#269 = DIRECTION ( 'NONE',  ( -0.000000000000000000, -0.000000000000000000, -1.000000000000000000 ) ) ;
#270 = APPROVAL_DATE_TIME ( #291, #136 ) ;
#271 = PLANE ( 'NONE',  #156 ) ;
#272 = AXIS2_PLACEMENT_3D ( 'NONE', #303, #98, #92 ) ;
#273 = CALENDAR_DATE ( 2022, 7, 7 ) ;
#274 = EDGE_CURVE ( 'NONE', #93, #142, #275, .T. ) ;
#275 = CIRCLE ( 'NONE', #40, 2.750000000000000000 ) ;
#276 = EDGE_CURVE ( 'NONE', #142, #93, #189, .T. ) ;
#277 = ORIENTED_EDGE ( 'NONE', *, *, #209, .T. ) ;
#278 = CC_DESIGN_PERSON_AND_ORGANIZATION_ASSIGNMENT ( #85, #105, ( #115 ) ) ;
#279 = ORIENTED_EDGE ( 'NONE', *, *, #26, .T. ) ;
#280 =( NAMED_UNIT ( * ) SI_UNIT ( $, .STERADIAN. ) SOLID_ANGLE_UNIT ( ) );
#281 = VERTEX_POINT ( 'NONE', #143 ) ;
#282 =( NAMED_UNIT ( * ) PLANE_ANGLE_UNIT ( ) SI_UNIT ( $, .RADIAN. ) );
#283 = VERTEX_POINT ( 'NONE', #186 ) ;
#284 = APPLICATION_PROTOCOL_DEFINITION ( 'international standard', 'config_control_design', 1994, #52 ) ;
#285 = CARTESIAN_POINT ( 'NONE',  ( 0.000000000000000000, 0.000000000000000000, 403.0000000000000000 ) ) ;
#286 = AXIS2_PLACEMENT_3D ( 'NONE', #288, #56, #82 ) ;
#287 = DESIGN_CONTEXT ( 'detailed design', #38, 'design' ) ;
#288 = CARTESIAN_POINT ( 'NONE',  ( 0.000000000000000000, 0.000000000000000000, 3.199999999999980638 ) ) ;
#289 = DIRECTION ( 'NONE',  ( -0.000000000000000000, -0.000000000000000000, -1.000000000000000000 ) ) ;
#290 = FACE_BOUND ( 'NONE', #239, .T. ) ;
#291 = DATE_AND_TIME ( #81, #228 ) ;
#292 =( GEOMETRIC_REPRESENTATION_CONTEXT ( 3 ) GLOBAL_UNCERTAINTY_ASSIGNED_CONTEXT ( ( #259 ) ) GLOBAL_UNIT_ASSIGNED_CONTEXT ( ( #49, #282, #280 ) ) REPRESENTATION_CONTEXT ( 'NONE', 'WORKASPACE' ) );
#293 = DIRECTION ( 'NONE',  ( -0.000000000000000000, -0.000000000000000000, -1.000000000000000000 ) ) ;
#294 = DATE_AND_TIME ( #273, #175 ) ;
#295 = SECURITY_CLASSIFICATION_LEVEL ( 'unclassified' ) ;
#296 = APPROVAL_DATE_TIME ( #245, #181 ) ;
#297 = CIRCLE ( 'NONE', #44, 0.2000000000000000944 ) ;
#298 = AXIS2_PLACEMENT_3D ( 'NONE', #123, #68, #3 ) ;
#299 = DIRECTION ( 'NONE',  ( 1.000000000000000000, 0.000000000000000000, 0.000000000000000000 ) ) ;
#300 = ORIENTED_EDGE ( 'NONE', *, *, #2, .T. ) ;
#301 = LINE ( 'NONE', #211, #16 ) ;
#302 = VERTEX_POINT ( 'NONE', #118 ) ;
#303 = CARTESIAN_POINT ( 'NONE',  ( 0.000000000000000000, 0.000000000000000000, 3.000000000000000000 ) ) ;
#304 = EDGE_CURVE ( 'NONE', #17, #142, #301, .T. ) ;
#305 = AXIS2_PLACEMENT_3D ( 'NONE', #135, #207, #299 ) ;
#306 = ORIENTED_EDGE ( 'NONE', *, *, #255, .F. ) ;
#307 = PRODUCT_DEFINITION_SHAPE ( 'NONE', 'NONE',  #36 ) ;
ENDSEC;
END-ISO-10303-21;
