ISO-10303-21;
HEADER;
FILE_DESCRIPTION (( 'STEP AP203' ),
    '1' );
FILE_NAME ('6550.STEP',
    '2022-07-07T10:20:10',
    ( '' ),
    ( '' ),
    'SwSTEP 2.0',
    'SolidWorks 2019',
    '' );
FILE_SCHEMA (( 'CONFIG_CONTROL_DESIGN' ));
ENDSEC;

DATA;
#1 = CARTESIAN_POINT ( 'NONE',  ( 0.000000000000000000, 0.000000000000000000, 3.200000000000008171 ) ) ;
#2 = PERSON_AND_ORGANIZATION ( #290, #160 ) ;
#3 = LINE ( 'NONE', #215, #125 ) ;
#4 = CC_DESIGN_APPROVAL ( #60, ( #37 ) ) ;
#5 = DATE_TIME_ROLE ( 'creation_date' ) ;
#6 = DATE_AND_TIME ( #219, #138 ) ;
#7 = AXIS2_PLACEMENT_3D ( 'NONE', #90, #114, #162 ) ;
#8 = DIRECTION ( 'NONE',  ( -0.000000000000000000, -0.000000000000000000, -1.000000000000000000 ) ) ;
#9 = PERSON_AND_ORGANIZATION ( #290, #160 ) ;
#10 = CYLINDRICAL_SURFACE ( 'NONE', #46, 2.500000000000000000 ) ;
#11 = CARTESIAN_POINT ( 'NONE',  ( 5.000000000000000000, 6.123233995736766282E-16, 3.000000000000000000 ) ) ;
#12 = ORIENTED_EDGE ( 'NONE', *, *, #271, .T. ) ;
#13 = CARTESIAN_POINT ( 'NONE',  ( 2.500000000000000000, 3.061616997868383141E-16, 163.0000000000000000 ) ) ;
#14 = ORIENTED_EDGE ( 'NONE', *, *, #77, .T. ) ;
#15 = AXIS2_PLACEMENT_3D ( 'NONE', #36, #178, #157 ) ;
#16 = CARTESIAN_POINT ( 'NONE',  ( 5.000000000000000000, 6.123233995736766282E-16, 3.000000000000000000 ) ) ;
#17 = AXIS2_PLACEMENT_3D ( 'NONE', #298, #154, #106 ) ;
#18 = PLANE ( 'NONE',  #185 ) ;
#19 = EDGE_CURVE ( 'NONE', #65, #62, #180, .T. ) ;
#20 = DIRECTION ( 'NONE',  ( 0.000000000000000000, 0.000000000000000000, 1.000000000000000000 ) ) ;
#21 = ADVANCED_FACE ( 'NONE', ( #249 ), #10, .T. ) ;
#22 = PERSON_AND_ORGANIZATION ( #290, #160 ) ;
#23 = AXIS2_PLACEMENT_3D ( 'NONE', #122, #265, #56 ) ;
#24 = DIRECTION ( 'NONE',  ( 1.000000000000000000, 0.000000000000000000, 0.000000000000000000 ) ) ;
#25 = PERSON_AND_ORGANIZATION_ROLE ( 'design_owner' ) ;
#26 = AXIS2_PLACEMENT_3D ( 'NONE', #218, #147, #166 ) ;
#27 = PERSON_AND_ORGANIZATION_ROLE ( 'creator' ) ;
#28 = APPROVAL_STATUS ( 'not_yet_approved' ) ;
#29 = ORIENTED_EDGE ( 'NONE', *, *, #19, .T. ) ;
#30 = MECHANICAL_CONTEXT ( 'NONE', #206, 'mechanical' ) ;
#31 = APPROVAL_STATUS ( 'not_yet_approved' ) ;
#32 = DIRECTION ( 'NONE',  ( 1.000000000000000000, 0.000000000000000000, 0.000000000000000000 ) ) ;
#33 = CIRCLE ( 'NONE', #59, 2.500000000000000000 ) ;
#34 = ADVANCED_FACE ( 'NONE', ( #86 ), #292, .T. ) ;
#35 = ORIENTED_EDGE ( 'NONE', *, *, #184, .F. ) ;
#36 = CARTESIAN_POINT ( 'NONE',  ( 0.000000000000000000, 0.000000000000000000, 163.0000000000000000 ) ) ;
#37 = PRODUCT_DEFINITION_FORMATION_WITH_SPECIFIED_SOURCE ( 'LIBOVOLNÝ', '', #307, .NOT_KNOWN. ) ;
#38 = VERTEX_POINT ( 'NONE', #64 ) ;
#39 = DIRECTION ( 'NONE',  ( 1.224646799147353207E-16, 1.000000000000000000, -0.000000000000000000 ) ) ;
#40 = UNCERTAINTY_MEASURE_WITH_UNIT (LENGTH_MEASURE( 1.000000000000000082E-05 ), #123, 'distance_accuracy_value', 'NONE');
#41 = ORIENTED_EDGE ( 'NONE', *, *, #113, .T. ) ;
#42 = ADVANCED_FACE ( 'NONE', ( #83 ), #63, .F. ) ;
#43 = AXIS2_PLACEMENT_3D ( 'NONE', #236, #20, #211 ) ;
#44 = LOCAL_TIME ( 12, 20, 10.00000000000000000, #94 ) ;
#45 = DIRECTION ( 'NONE',  ( 1.000000000000000000, 0.000000000000000000, 0.000000000000000000 ) ) ;
#46 = AXIS2_PLACEMENT_3D ( 'NONE', #201, #204, #229 ) ;
#47 = EDGE_CURVE ( 'NONE', #247, #266, #33, .T. ) ;
#48 = DIRECTION ( 'NONE',  ( 0.000000000000000000, 0.000000000000000000, 1.000000000000000000 ) ) ;
#49 = CARTESIAN_POINT ( 'NONE',  ( 0.000000000000000000, 0.000000000000000000, 3.000000000000000000 ) ) ;
#50 = PERSON_AND_ORGANIZATION_ROLE ( 'classification_officer' ) ;
#51 = DIRECTION ( 'NONE',  ( 1.000000000000000000, 0.000000000000000000, 0.000000000000000000 ) ) ;
#52 = EDGE_CURVE ( 'NONE', #170, #248, #232, .T. ) ;
#53 = DIRECTION ( 'NONE',  ( 1.000000000000000000, 0.000000000000000000, 0.000000000000000000 ) ) ;
#54 = CC_DESIGN_APPROVAL ( #175, ( #179 ) ) ;
#55 = DATE_AND_TIME ( #223, #183 ) ;
#56 = DIRECTION ( 'NONE',  ( -1.000000000000000000, 0.000000000000000000, 0.000000000000000000 ) ) ;
#57 = ORIENTED_EDGE ( 'NONE', *, *, #134, .F. ) ;
#58 = CARTESIAN_POINT ( 'NONE',  ( -2.500000000000000000, 0.000000000000000000, 163.0000000000000000 ) ) ;
#59 = AXIS2_PLACEMENT_3D ( 'NONE', #131, #295, #156 ) ;
#60 = APPROVAL ( #31, 'NEURÈENÝ' ) ;
#61 = EDGE_LOOP ( 'NONE', ( #251, #286, #296, #155 ) ) ;
#62 = VERTEX_POINT ( 'NONE', #228 ) ;
#63 = TOROIDAL_SURFACE ( 'NONE', #126, 2.700000000000000178, 0.2000000000000000111 ) ;
#64 = CARTESIAN_POINT ( 'NONE',  ( 2.500000000000000000, 3.061616997868383141E-16, 3.200000000000008171 ) ) ;
#65 = VERTEX_POINT ( 'NONE', #11 ) ;
#66 = CIRCLE ( 'NONE', #26, 0.2000000000000000944 ) ;
#67 = DIRECTION ( 'NONE',  ( -0.000000000000000000, -0.000000000000000000, -1.000000000000000000 ) ) ;
#68 = DIRECTION ( 'NONE',  ( 0.000000000000000000, 0.000000000000000000, 1.000000000000000000 ) ) ;
#69 = CIRCLE ( 'NONE', #140, 2.500000000000000000 ) ;
#70 = LINE ( 'NONE', #16, #293 ) ;
#71 = DIRECTION ( 'NONE',  ( 1.000000000000000000, 0.000000000000000000, 0.000000000000000000 ) ) ;
#72 = APPROVAL_ROLE ( '' ) ;
#73 = MANIFOLD_SOLID_BREP ( 'Zaoblit1', #105 ) ;
#74 = COORDINATED_UNIVERSAL_TIME_OFFSET ( 1, 0, .AHEAD. ) ;
#75 = ORIENTED_EDGE ( 'NONE', *, *, #216, .T. ) ;
#76 = PERSON_AND_ORGANIZATION_ROLE ( 'creator' ) ;
#77 = EDGE_CURVE ( 'NONE', #170, #38, #306, .T. ) ;
#78 = ORIENTED_EDGE ( 'NONE', *, *, #192, .F. ) ;
#79 =( GEOMETRIC_REPRESENTATION_CONTEXT ( 3 ) GLOBAL_UNCERTAINTY_ASSIGNED_CONTEXT ( ( #40 ) ) GLOBAL_UNIT_ASSIGNED_CONTEXT ( ( #123, #238, #99 ) ) REPRESENTATION_CONTEXT ( 'NONE', 'WORKASPACE' ) );
#80 = AXIS2_PLACEMENT_3D ( 'NONE', #91, #189, #71 ) ;
#81 = ORIENTED_EDGE ( 'NONE', *, *, #250, .T. ) ;
#82 = PRODUCT_RELATED_PRODUCT_CATEGORY ( 'detail', '', ( #307 ) ) ;
#83 = FACE_OUTER_BOUND ( 'NONE', #231, .T. ) ;
#84 = CARTESIAN_POINT ( 'NONE',  ( 0.000000000000000000, 0.000000000000000000, 3.200000000000008171 ) ) ;
#85 = APPLICATION_CONTEXT ( 'configuration controlled 3d designs of mechanical parts and assemblies' ) ;
#86 = FACE_OUTER_BOUND ( 'NONE', #107, .T. ) ;
#87 = AXIS2_PLACEMENT_3D ( 'NONE', #84, #177, #135 ) ;
#88 = CC_DESIGN_PERSON_AND_ORGANIZATION_ASSIGNMENT ( #191, #101, ( #37 ) ) ;
#89 = DIRECTION ( 'NONE',  ( 1.000000000000000000, 0.000000000000000000, 0.000000000000000000 ) ) ;
#90 = CARTESIAN_POINT ( 'NONE',  ( 0.000000000000000000, 0.000000000000000000, 3.000000000000000000 ) ) ;
#91 = CARTESIAN_POINT ( 'NONE',  ( 0.000000000000000000, 0.000000000000000000, 3.000000000000000000 ) ) ;
#92 = AXIS2_PLACEMENT_3D ( 'NONE', #280, #261, #258 ) ;
#93 = EDGE_CURVE ( 'NONE', #247, #38, #230, .T. ) ;
#94 = COORDINATED_UNIVERSAL_TIME_OFFSET ( 1, 0, .AHEAD. ) ;
#95 = FACE_OUTER_BOUND ( 'NONE', #172, .T. ) ;
#96 = COORDINATED_UNIVERSAL_TIME_OFFSET ( 1, 0, .AHEAD. ) ;
#97 = CALENDAR_DATE ( 2022, 7, 7 ) ;
#98 = ORIENTED_EDGE ( 'NONE', *, *, #93, .T. ) ;
#99 =( NAMED_UNIT ( * ) SI_UNIT ( $, .STERADIAN. ) SOLID_ANGLE_UNIT ( ) );
#100 = CIRCLE ( 'NONE', #275, 2.700000000000000178 ) ;
#101 = PERSON_AND_ORGANIZATION_ROLE ( 'design_supplier' ) ;
#102 = PERSON_AND_ORGANIZATION ( #290, #160 ) ;
#103 = ORIENTED_EDGE ( 'NONE', *, *, #259, .T. ) ;
#104 = AXIS2_PLACEMENT_3D ( 'NONE', #287, #195, #53 ) ;
#105 = CLOSED_SHELL ( 'NONE', ( #152, #21, #277, #163, #137, #199, #208, #34, #42 ) ) ;
#106 = DIRECTION ( 'NONE',  ( 1.000000000000000000, 0.000000000000000000, 0.000000000000000000 ) ) ;
#107 = EDGE_LOOP ( 'NONE', ( #198, #291 ) ) ;
#108 = DIRECTION ( 'NONE',  ( -0.000000000000000000, -0.000000000000000000, -1.000000000000000000 ) ) ;
#109 = CC_DESIGN_SECURITY_CLASSIFICATION ( #179, ( #37 ) ) ;
#110 = AXIS2_PLACEMENT_3D ( 'NONE', #304, #190, #51 ) ;
#111 = EDGE_LOOP ( 'NONE', ( #149, #98, #136, #244 ) ) ;
#112 = CC_DESIGN_DATE_AND_TIME_ASSIGNMENT ( #168, #5, ( #225 ) ) ;
#113 = EDGE_CURVE ( 'NONE', #174, #226, #173, .T. ) ;
#114 = DIRECTION ( 'NONE',  ( 0.000000000000000000, 0.000000000000000000, 1.000000000000000000 ) ) ;
#115 = DIRECTION ( 'NONE',  ( 1.000000000000000000, 0.000000000000000000, -0.000000000000000000 ) ) ;
#116 = CARTESIAN_POINT ( 'NONE',  ( 0.000000000000000000, 0.000000000000000000, 3.200000000000008171 ) ) ;
#117 = DIRECTION ( 'NONE',  ( 0.000000000000000000, 0.000000000000000000, 1.000000000000000000 ) ) ;
#118 = AXIS2_PLACEMENT_3D ( 'NONE', #49, #67, #159 ) ;
#119 = CYLINDRICAL_SURFACE ( 'NONE', #23, 5.000000000000000000 ) ;
#120 = EDGE_CURVE ( 'NONE', #252, #248, #100, .T. ) ;
#121 = DATE_AND_TIME ( #284, #44 ) ;
#122 = CARTESIAN_POINT ( 'NONE',  ( 0.000000000000000000, 0.000000000000000000, 3.000000000000000000 ) ) ;
#123 =( LENGTH_UNIT ( ) NAMED_UNIT ( * ) SI_UNIT ( .MILLI., .METRE. ) );
#124 = APPROVAL_DATE_TIME ( #6, #60 ) ;
#125 = VECTOR ( 'NONE', #8, 1000.000000000000000 ) ;
#126 = AXIS2_PLACEMENT_3D ( 'NONE', #274, #273, #203 ) ;
#127 = SECURITY_CLASSIFICATION_LEVEL ( 'unclassified' ) ;
#128 = DIRECTION ( 'NONE',  ( 0.000000000000000000, 0.000000000000000000, 1.000000000000000000 ) ) ;
#129 = CARTESIAN_POINT ( 'NONE',  ( -2.500000000000000000, 0.000000000000000000, 163.0000000000000000 ) ) ;
#130 = ORIENTED_EDGE ( 'NONE', *, *, #93, .F. ) ;
#131 = CARTESIAN_POINT ( 'NONE',  ( 0.000000000000000000, 0.000000000000000000, 163.0000000000000000 ) ) ;
#132 = CC_DESIGN_APPROVAL ( #300, ( #225 ) ) ;
#133 = ORIENTED_EDGE ( 'NONE', *, *, #113, .F. ) ;
#134 = EDGE_CURVE ( 'NONE', #38, #170, #69, .T. ) ;
#135 = DIRECTION ( 'NONE',  ( 1.000000000000000000, 0.000000000000000000, 0.000000000000000000 ) ) ;
#136 = ORIENTED_EDGE ( 'NONE', *, *, #134, .T. ) ;
#137 = ADVANCED_FACE ( 'NONE', ( #260, #214 ), #279, .T. ) ;
#138 = LOCAL_TIME ( 12, 20, 10.00000000000000000, #96 ) ;
#139 = DESIGN_CONTEXT ( 'detailed design', #85, 'design' ) ;
#140 = AXIS2_PLACEMENT_3D ( 'NONE', #116, #68, #45 ) ;
#141 = CARTESIAN_POINT ( 'NONE',  ( 5.000000000000000000, 6.123233995736766282E-16, 0.000000000000000000 ) ) ;
#142 = DIRECTION ( 'NONE',  ( -0.000000000000000000, -0.000000000000000000, -1.000000000000000000 ) ) ;
#143 = CARTESIAN_POINT ( 'NONE',  ( -5.000000000000000000, 0.000000000000000000, 0.000000000000000000 ) ) ;
#144 = CC_DESIGN_PERSON_AND_ORGANIZATION_ASSIGNMENT ( #2, #27, ( #37 ) ) ;
#145 = LOCAL_TIME ( 12, 20, 10.00000000000000000, #74 ) ;
#146 = DIRECTION ( 'NONE',  ( -0.000000000000000000, -0.000000000000000000, -1.000000000000000000 ) ) ;
#147 = DIRECTION ( 'NONE',  ( 0.000000000000000000, -1.000000000000000000, 0.000000000000000000 ) ) ;
#148 = APPROVAL_ROLE ( '' ) ;
#149 = ORIENTED_EDGE ( 'NONE', *, *, #47, .F. ) ;
#150 = CALENDAR_DATE ( 2022, 7, 7 ) ;
#151 = ORIENTED_EDGE ( 'NONE', *, *, #19, .F. ) ;
#152 = ADVANCED_FACE ( 'NONE', ( #186 ), #269, .F. ) ;
#153 = ORIENTED_EDGE ( 'NONE', *, *, #305, .F. ) ;
#154 = DIRECTION ( 'NONE',  ( 0.000000000000000000, 0.000000000000000000, 1.000000000000000000 ) ) ;
#155 = ORIENTED_EDGE ( 'NONE', *, *, #259, .F. ) ;
#156 = DIRECTION ( 'NONE',  ( 1.000000000000000000, 0.000000000000000000, 0.000000000000000000 ) ) ;
#157 = DIRECTION ( 'NONE',  ( 1.000000000000000000, 0.000000000000000000, -0.000000000000000000 ) ) ;
#158 = CIRCLE ( 'NONE', #110, 2.500000000000000000 ) ;
#159 = DIRECTION ( 'NONE',  ( -1.000000000000000000, 0.000000000000000000, 0.000000000000000000 ) ) ;
#160 = ORGANIZATION ( 'NEURÈENÝ', 'NEURÈENÝ', '' ) ;
#161 = CIRCLE ( 'NONE', #202, 2.700000000000000178 ) ;
#162 = DIRECTION ( 'NONE',  ( 1.000000000000000000, 0.000000000000000000, -0.000000000000000000 ) ) ;
#163 = ADVANCED_FACE ( 'NONE', ( #187 ), #256, .T. ) ;
#164 = CARTESIAN_POINT ( 'NONE',  ( 0.000000000000000000, 0.000000000000000000, 3.000000000000000000 ) ) ;
#165 = CARTESIAN_POINT ( 'NONE',  ( 2.700000000000000178, 0.000000000000000000, 3.000000000000004441 ) ) ;
#166 = DIRECTION ( 'NONE',  ( 0.000000000000000000, 0.000000000000000000, -1.000000000000000000 ) ) ;
#167 = APPROVAL_PERSON_ORGANIZATION ( #169, #60, #148 ) ;
#168 = DATE_AND_TIME ( #150, #301 ) ;
#169 = PERSON_AND_ORGANIZATION ( #290, #160 ) ;
#170 = VERTEX_POINT ( 'NONE', #239 ) ;
#171 = COORDINATED_UNIVERSAL_TIME_OFFSET ( 1, 0, .AHEAD. ) ;
#172 = EDGE_LOOP ( 'NONE', ( #272, #133 ) ) ;
#173 = CIRCLE ( 'NONE', #246, 5.000000000000000000 ) ;
#174 = VERTEX_POINT ( 'NONE', #141 ) ;
#175 = APPROVAL ( #217, 'NEURÈENÝ' ) ;
#176 = CARTESIAN_POINT ( 'NONE',  ( -2.700000000000000178, 3.306546357697853733E-16, 3.200000000000008171 ) ) ;
#177 = DIRECTION ( 'NONE',  ( 0.000000000000000000, 0.000000000000000000, 1.000000000000000000 ) ) ;
#178 = DIRECTION ( 'NONE',  ( 0.000000000000000000, 0.000000000000000000, 1.000000000000000000 ) ) ;
#179 = SECURITY_CLASSIFICATION ( '', '', #127 ) ;
#180 = CIRCLE ( 'NONE', #17, 5.000000000000000000 ) ;
#181 = DIRECTION ( 'NONE',  ( -1.000000000000000000, 1.224646799147353207E-16, 0.000000000000000000 ) ) ;
#182 = ADVANCED_BREP_SHAPE_REPRESENTATION ( '6550', ( #73, #104 ), #79 ) ;
#183 = LOCAL_TIME ( 12, 20, 10.00000000000000000, #196 ) ;
#184 = EDGE_CURVE ( 'NONE', #248, #252, #161, .T. ) ;
#185 = AXIS2_PLACEMENT_3D ( 'NONE', #235, #128, #115 ) ;
#186 = FACE_OUTER_BOUND ( 'NONE', #61, .T. ) ;
#187 = FACE_OUTER_BOUND ( 'NONE', #194, .T. ) ;
#188 = CC_DESIGN_PERSON_AND_ORGANIZATION_ASSIGNMENT ( #102, #76, ( #225 ) ) ;
#189 = DIRECTION ( 'NONE',  ( 0.000000000000000000, 0.000000000000000000, 1.000000000000000000 ) ) ;
#190 = DIRECTION ( 'NONE',  ( 0.000000000000000000, 0.000000000000000000, 1.000000000000000000 ) ) ;
#191 = PERSON_AND_ORGANIZATION ( #290, #160 ) ;
#192 = EDGE_CURVE ( 'NONE', #266, #247, #158, .T. ) ;
#193 = DATE_AND_TIME ( #97, #145 ) ;
#194 = EDGE_LOOP ( 'NONE', ( #205, #270, #276, #75 ) ) ;
#195 = DIRECTION ( 'NONE',  ( 0.000000000000000000, 0.000000000000000000, 1.000000000000000000 ) ) ;
#196 = COORDINATED_UNIVERSAL_TIME_OFFSET ( 1, 0, .AHEAD. ) ;
#197 = PERSON_AND_ORGANIZATION ( #290, #160 ) ;
#198 = ORIENTED_EDGE ( 'NONE', *, *, #192, .T. ) ;
#199 = ADVANCED_FACE ( 'NONE', ( #95 ), #18, .F. ) ;
#200 = EDGE_LOOP ( 'NONE', ( #130, #78, #12, #14 ) ) ;
#201 = CARTESIAN_POINT ( 'NONE',  ( 0.000000000000000000, 0.000000000000000000, 163.0000000000000000 ) ) ;
#202 = AXIS2_PLACEMENT_3D ( 'NONE', #209, #142, #32 ) ;
#203 = DIRECTION ( 'NONE',  ( 1.000000000000000000, 0.000000000000000000, 0.000000000000000000 ) ) ;
#204 = DIRECTION ( 'NONE',  ( -0.000000000000000000, -0.000000000000000000, -1.000000000000000000 ) ) ;
#205 = ORIENTED_EDGE ( 'NONE', *, *, #250, .F. ) ;
#206 = APPLICATION_CONTEXT ( 'configuration controlled 3d designs of mechanical parts and assemblies' ) ;
#207 = EDGE_LOOP ( 'NONE', ( #289, #253 ) ) ;
#208 = ADVANCED_FACE ( 'NONE', ( #210 ), #224, .T. ) ;
#209 = CARTESIAN_POINT ( 'NONE',  ( 0.000000000000000000, 0.000000000000000000, 3.000000000000000000 ) ) ;
#210 = FACE_OUTER_BOUND ( 'NONE', #200, .T. ) ;
#211 = DIRECTION ( 'NONE',  ( 1.000000000000000000, 0.000000000000000000, 0.000000000000000000 ) ) ;
#212 = CIRCLE ( 'NONE', #80, 5.000000000000000000 ) ;
#213 = PRODUCT_DEFINITION_SHAPE ( 'NONE', 'NONE',  #225 ) ;
#214 = FACE_OUTER_BOUND ( 'NONE', #294, .T. ) ;
#215 = CARTESIAN_POINT ( 'NONE',  ( -5.000000000000000000, 0.000000000000000000, 3.000000000000000000 ) ) ;
#216 = EDGE_CURVE ( 'NONE', #226, #174, #255, .T. ) ;
#217 = APPROVAL_STATUS ( 'not_yet_approved' ) ;
#218 = CARTESIAN_POINT ( 'NONE',  ( 2.700000000000000178, 0.000000000000000000, 3.200000000000008171 ) ) ;
#219 = CALENDAR_DATE ( 2022, 7, 7 ) ;
#220 = ORIENTED_EDGE ( 'NONE', *, *, #52, .F. ) ;
#221 = AXIS2_PLACEMENT_3D ( 'NONE', #176, #39, #181 ) ;
#222 = FACE_OUTER_BOUND ( 'NONE', #227, .T. ) ;
#223 = CALENDAR_DATE ( 2022, 7, 7 ) ;
#224 = CYLINDRICAL_SURFACE ( 'NONE', #92, 2.500000000000000000 ) ;
#225 = PRODUCT_DEFINITION ( 'NEZNÁMÝ', '', #37, #139 ) ;
#226 = VERTEX_POINT ( 'NONE', #143 ) ;
#227 = EDGE_LOOP ( 'NONE', ( #151, #81, #41, #153 ) ) ;
#228 = CARTESIAN_POINT ( 'NONE',  ( -5.000000000000000000, 0.000000000000000000, 3.000000000000000000 ) ) ;
#229 = DIRECTION ( 'NONE',  ( -1.000000000000000000, 0.000000000000000000, 0.000000000000000000 ) ) ;
#230 = LINE ( 'NONE', #13, #257 ) ;
#231 = EDGE_LOOP ( 'NONE', ( #220, #57, #103, #35 ) ) ;
#232 = CIRCLE ( 'NONE', #221, 0.2000000000000000944 ) ;
#233 = CC_DESIGN_DATE_AND_TIME_ASSIGNMENT ( #121, #264, ( #179 ) ) ;
#234 = CARTESIAN_POINT ( 'NONE',  ( 2.500000000000000000, 3.061616997868383141E-16, 163.0000000000000000 ) ) ;
#235 = CARTESIAN_POINT ( 'NONE',  ( 0.000000000000000000, 0.000000000000000000, 0.000000000000000000 ) ) ;
#236 = CARTESIAN_POINT ( 'NONE',  ( 0.000000000000000000, 0.000000000000000000, 0.000000000000000000 ) ) ;
#237 = DIRECTION ( 'NONE',  ( -0.000000000000000000, -0.000000000000000000, -1.000000000000000000 ) ) ;
#238 =( NAMED_UNIT ( * ) PLANE_ANGLE_UNIT ( ) SI_UNIT ( $, .RADIAN. ) );
#239 = CARTESIAN_POINT ( 'NONE',  ( -2.500000000000000000, 0.000000000000000000, 3.200000000000008171 ) ) ;
#240 = APPLICATION_PROTOCOL_DEFINITION ( 'international standard', 'config_control_design', 1994, #85 ) ;
#241 = ORIENTED_EDGE ( 'NONE', *, *, #245, .T. ) ;
#242 = LINE ( 'NONE', #129, #278 ) ;
#243 = APPROVAL_DATE_TIME ( #55, #175 ) ;
#244 = ORIENTED_EDGE ( 'NONE', *, *, #271, .F. ) ;
#245 = EDGE_CURVE ( 'NONE', #62, #65, #212, .T. ) ;
#246 = AXIS2_PLACEMENT_3D ( 'NONE', #303, #117, #24 ) ;
#247 = VERTEX_POINT ( 'NONE', #234 ) ;
#248 = VERTEX_POINT ( 'NONE', #281 ) ;
#249 = FACE_OUTER_BOUND ( 'NONE', #111, .T. ) ;
#250 = EDGE_CURVE ( 'NONE', #65, #174, #70, .T. ) ;
#251 = ORIENTED_EDGE ( 'NONE', *, *, #77, .F. ) ;
#252 = VERTEX_POINT ( 'NONE', #165 ) ;
#253 = ORIENTED_EDGE ( 'NONE', *, *, #184, .T. ) ;
#254 = CC_DESIGN_PERSON_AND_ORGANIZATION_ASSIGNMENT ( #267, #25, ( #307 ) ) ;
#255 = CIRCLE ( 'NONE', #43, 5.000000000000000000 ) ;
#256 = CYLINDRICAL_SURFACE ( 'NONE', #118, 5.000000000000000000 ) ;
#257 = VECTOR ( 'NONE', #108, 1000.000000000000000 ) ;
#258 = DIRECTION ( 'NONE',  ( -1.000000000000000000, 0.000000000000000000, 0.000000000000000000 ) ) ;
#259 = EDGE_CURVE ( 'NONE', #38, #252, #66, .T. ) ;
#260 = FACE_BOUND ( 'NONE', #207, .T. ) ;
#261 = DIRECTION ( 'NONE',  ( -0.000000000000000000, -0.000000000000000000, -1.000000000000000000 ) ) ;
#262 = APPLICATION_PROTOCOL_DEFINITION ( 'international standard', 'config_control_design', 1994, #206 ) ;
#263 = APPROVAL_PERSON_ORGANIZATION ( #197, #300, #288 ) ;
#264 = DATE_TIME_ROLE ( 'classification_date' ) ;
#265 = DIRECTION ( 'NONE',  ( -0.000000000000000000, -0.000000000000000000, -1.000000000000000000 ) ) ;
#266 = VERTEX_POINT ( 'NONE', #58 ) ;
#267 = PERSON_AND_ORGANIZATION ( #290, #160 ) ;
#268 = SHAPE_DEFINITION_REPRESENTATION ( #213, #182 ) ;
#269 = TOROIDAL_SURFACE ( 'NONE', #299, 2.700000000000000178, 0.2000000000000000111 ) ;
#270 = ORIENTED_EDGE ( 'NONE', *, *, #245, .F. ) ;
#271 = EDGE_CURVE ( 'NONE', #266, #170, #242, .T. ) ;
#272 = ORIENTED_EDGE ( 'NONE', *, *, #216, .F. ) ;
#273 = DIRECTION ( 'NONE',  ( 0.000000000000000000, 0.000000000000000000, 1.000000000000000000 ) ) ;
#274 = CARTESIAN_POINT ( 'NONE',  ( 0.000000000000000000, 0.000000000000000000, 3.200000000000008171 ) ) ;
#275 = AXIS2_PLACEMENT_3D ( 'NONE', #164, #302, #89 ) ;
#276 = ORIENTED_EDGE ( 'NONE', *, *, #305, .T. ) ;
#277 = ADVANCED_FACE ( 'NONE', ( #222 ), #119, .T. ) ;
#278 = VECTOR ( 'NONE', #146, 1000.000000000000000 ) ;
#279 = PLANE ( 'NONE',  #7 ) ;
#280 = CARTESIAN_POINT ( 'NONE',  ( 0.000000000000000000, 0.000000000000000000, 163.0000000000000000 ) ) ;
#281 = CARTESIAN_POINT ( 'NONE',  ( -2.700000000000000178, 3.306546357697853733E-16, 3.000000000000004441 ) ) ;
#282 = CC_DESIGN_PERSON_AND_ORGANIZATION_ASSIGNMENT ( #9, #50, ( #179 ) ) ;
#283 = DIRECTION ( 'NONE',  ( 1.000000000000000000, 0.000000000000000000, 0.000000000000000000 ) ) ;
#284 = CALENDAR_DATE ( 2022, 7, 7 ) ;
#285 = APPROVAL_DATE_TIME ( #193, #300 ) ;
#286 = ORIENTED_EDGE ( 'NONE', *, *, #52, .T. ) ;
#287 = CARTESIAN_POINT ( 'NONE',  ( 0.000000000000000000, 0.000000000000000000, 0.000000000000000000 ) ) ;
#288 = APPROVAL_ROLE ( '' ) ;
#289 = ORIENTED_EDGE ( 'NONE', *, *, #120, .T. ) ;
#290 = PERSON ( 'NEURÈENÝ', 'NEURÈENÝ', 'NEURÈENÝ', ('NEURÈENÝ'), ('NEURÈENÝ'), ('NEURÈENÝ') ) ;
#291 = ORIENTED_EDGE ( 'NONE', *, *, #47, .T. ) ;
#292 = PLANE ( 'NONE',  #15 ) ;
#293 = VECTOR ( 'NONE', #237, 1000.000000000000000 ) ;
#294 = EDGE_LOOP ( 'NONE', ( #241, #29 ) ) ;
#295 = DIRECTION ( 'NONE',  ( 0.000000000000000000, 0.000000000000000000, 1.000000000000000000 ) ) ;
#296 = ORIENTED_EDGE ( 'NONE', *, *, #120, .F. ) ;
#297 = APPROVAL_PERSON_ORGANIZATION ( #22, #175, #72 ) ;
#298 = CARTESIAN_POINT ( 'NONE',  ( 0.000000000000000000, 0.000000000000000000, 3.000000000000000000 ) ) ;
#299 = AXIS2_PLACEMENT_3D ( 'NONE', #1, #48, #283 ) ;
#300 = APPROVAL ( #28, 'NEURÈENÝ' ) ;
#301 = LOCAL_TIME ( 12, 20, 10.00000000000000000, #171 ) ;
#302 = DIRECTION ( 'NONE',  ( -0.000000000000000000, -0.000000000000000000, -1.000000000000000000 ) ) ;
#303 = CARTESIAN_POINT ( 'NONE',  ( 0.000000000000000000, 0.000000000000000000, 0.000000000000000000 ) ) ;
#304 = CARTESIAN_POINT ( 'NONE',  ( 0.000000000000000000, 0.000000000000000000, 163.0000000000000000 ) ) ;
#305 = EDGE_CURVE ( 'NONE', #62, #226, #3, .T. ) ;
#306 = CIRCLE ( 'NONE', #87, 2.500000000000000000 ) ;
#307 = PRODUCT ( '6550', '6550', '', ( #30 ) ) ;
ENDSEC;
END-ISO-10303-21;
