ISO-10303-21;
HEADER;
FILE_DESCRIPTION (( 'STEP AP203' ),
    '1' );
FILE_NAME ('1c9d.STEP',
    '2022-07-07T09:56:06',
    ( '' ),
    ( '' ),
    'SwSTEP 2.0',
    'SolidWorks 2019',
    '' );
FILE_SCHEMA (( 'CONFIG_CONTROL_DESIGN' ));
ENDSEC;

DATA;
#1 = PERSON_AND_ORGANIZATION ( #115, #65 ) ;
#2 = ORIENTED_EDGE ( 'NONE', *, *, #104, .F. ) ;
#3 = PERSON_AND_ORGANIZATION ( #115, #65 ) ;
#4 = ADVANCED_FACE ( 'NONE', ( #250 ), #269, .T. ) ;
#5 = CALENDAR_DATE ( 2022, 7, 7 ) ;
#6 = VECTOR ( 'NONE', #276, 1000.000000000000000 ) ;
#7 = CARTESIAN_POINT ( 'NONE',  ( 0.000000000000000000, 0.000000000000000000, 5.000000000000000000 ) ) ;
#8 = ORIENTED_EDGE ( 'NONE', *, *, #52, .T. ) ;
#9 = EDGE_LOOP ( 'NONE', ( #95, #183 ) ) ;
#10 = DIRECTION ( 'NONE',  ( 0.000000000000000000, 0.000000000000000000, 1.000000000000000000 ) ) ;
#11 = AXIS2_PLACEMENT_3D ( 'NONE', #68, #167, #193 ) ;
#12 = CARTESIAN_POINT ( 'NONE',  ( 4.700000000000000178, 0.000000000000000000, 4.999999999999991118 ) ) ;
#13 = CC_DESIGN_DATE_AND_TIME_ASSIGNMENT ( #51, #113, ( #196 ) ) ;
#14 = PERSON_AND_ORGANIZATION_ROLE ( 'creator' ) ;
#15 = DIRECTION ( 'NONE',  ( 0.000000000000000000, 0.000000000000000000, 1.000000000000000000 ) ) ;
#16 = PERSON_AND_ORGANIZATION ( #115, #65 ) ;
#17 = DIRECTION ( 'NONE',  ( 1.000000000000000000, 0.000000000000000000, 0.000000000000000000 ) ) ;
#18 = AXIS2_PLACEMENT_3D ( 'NONE', #43, #170, #255 ) ;
#19 = LINE ( 'NONE', #105, #6 ) ;
#20 = CARTESIAN_POINT ( 'NONE',  ( 7.000000000000000000, 8.572527594031473190E-16, 5.000000000000000000 ) ) ;
#21 = CARTESIAN_POINT ( 'NONE',  ( 7.000000000000000000, 8.572527594031473190E-16, 0.000000000000000000 ) ) ;
#22 = CARTESIAN_POINT ( 'NONE',  ( 0.000000000000000000, 0.000000000000000000, 805.0000000000000000 ) ) ;
#23 = CALENDAR_DATE ( 2022, 7, 7 ) ;
#24 = ADVANCED_FACE ( 'NONE', ( #116 ), #222, .F. ) ;
#25 = CALENDAR_DATE ( 2022, 7, 7 ) ;
#26 = ORIENTED_EDGE ( 'NONE', *, *, #114, .F. ) ;
#27 = VERTEX_POINT ( 'NONE', #161 ) ;
#28 = CARTESIAN_POINT ( 'NONE',  ( 0.000000000000000000, 0.000000000000000000, 5.199999999999982414 ) ) ;
#29 = EDGE_CURVE ( 'NONE', #287, #88, #94, .T. ) ;
#30 = CIRCLE ( 'NONE', #80, 7.000000000000000000 ) ;
#31 = CC_DESIGN_APPROVAL ( #285, ( #234 ) ) ;
#32 = DIRECTION ( 'NONE',  ( 1.000000000000000000, 0.000000000000000000, -0.000000000000000000 ) ) ;
#33 = VERTEX_POINT ( 'NONE', #291 ) ;
#34 = EDGE_CURVE ( 'NONE', #225, #33, #174, .T. ) ;
#35 = ORIENTED_EDGE ( 'NONE', *, *, #187, .F. ) ;
#36 = VECTOR ( 'NONE', #254, 1000.000000000000000 ) ;
#37 = CARTESIAN_POINT ( 'NONE',  ( 0.000000000000000000, 0.000000000000000000, 5.000000000000000000 ) ) ;
#38 = CARTESIAN_POINT ( 'NONE',  ( -4.500000000000000888, 0.000000000000000000, 805.0000000000000000 ) ) ;
#39 = APPROVAL_ROLE ( '' ) ;
#40 = CARTESIAN_POINT ( 'NONE',  ( 0.000000000000000000, 0.000000000000000000, 5.199999999999982414 ) ) ;
#41 = CIRCLE ( 'NONE', #220, 0.1999999999999996503 ) ;
#42 = DIRECTION ( 'NONE',  ( 1.000000000000000000, 0.000000000000000000, 0.000000000000000000 ) ) ;
#43 = CARTESIAN_POINT ( 'NONE',  ( 0.000000000000000000, 0.000000000000000000, 805.0000000000000000 ) ) ;
#44 =( GEOMETRIC_REPRESENTATION_CONTEXT ( 3 ) GLOBAL_UNCERTAINTY_ASSIGNED_CONTEXT ( ( #63 ) ) GLOBAL_UNIT_ASSIGNED_CONTEXT ( ( #194, #106, #235 ) ) REPRESENTATION_CONTEXT ( 'NONE', 'WORKASPACE' ) );
#45 = FACE_OUTER_BOUND ( 'NONE', #223, .T. ) ;
#46 = CC_DESIGN_PERSON_AND_ORGANIZATION_ASSIGNMENT ( #192, #150, ( #290 ) ) ;
#47 = DATE_AND_TIME ( #23, #282 ) ;
#48 = DATE_AND_TIME ( #25, #60 ) ;
#49 = AXIS2_PLACEMENT_3D ( 'NONE', #69, #73, #302 ) ;
#50 = EDGE_LOOP ( 'NONE', ( #135, #119, #112, #154 ) ) ;
#51 = DATE_AND_TIME ( #110, #75 ) ;
#52 = EDGE_CURVE ( 'NONE', #178, #287, #41, .T. ) ;
#53 = APPROVAL_STATUS ( 'not_yet_approved' ) ;
#54 = CIRCLE ( 'NONE', #249, 7.000000000000000000 ) ;
#55 = ORIENTED_EDGE ( 'NONE', *, *, #152, .T. ) ;
#56 = ADVANCED_FACE ( 'NONE', ( #247 ), #295, .T. ) ;
#57 = EDGE_LOOP ( 'NONE', ( #209, #221 ) ) ;
#58 = ORIENTED_EDGE ( 'NONE', *, *, #203, .T. ) ;
#59 = APPROVAL ( #53, 'NEURÈENÝ' ) ;
#60 = LOCAL_TIME ( 11, 56, 6.000000000000000000, #153 ) ;
#61 = DIRECTION ( 'NONE',  ( 1.224646799147353207E-16, 1.000000000000000000, -0.000000000000000000 ) ) ;
#62 = DIRECTION ( 'NONE',  ( -0.000000000000000000, -0.000000000000000000, -1.000000000000000000 ) ) ;
#63 = UNCERTAINTY_MEASURE_WITH_UNIT (LENGTH_MEASURE( 1.000000000000000082E-05 ), #194, 'distance_accuracy_value', 'NONE');
#64 = ORIENTED_EDGE ( 'NONE', *, *, #258, .F. ) ;
#65 = ORGANIZATION ( 'NEURÈENÝ', 'NEURÈENÝ', '' ) ;
#66 = DIRECTION ( 'NONE',  ( -0.000000000000000000, -0.000000000000000000, -1.000000000000000000 ) ) ;
#67 = DATE_TIME_ROLE ( 'creation_date' ) ;
#68 = CARTESIAN_POINT ( 'NONE',  ( 0.000000000000000000, 0.000000000000000000, 5.000000000000000000 ) ) ;
#69 = CARTESIAN_POINT ( 'NONE',  ( 0.000000000000000000, 0.000000000000000000, 5.000000000000000000 ) ) ;
#70 = CYLINDRICAL_SURFACE ( 'NONE', #18, 4.500000000000000888 ) ;
#71 = AXIS2_PLACEMENT_3D ( 'NONE', #37, #226, #207 ) ;
#72 = AXIS2_PLACEMENT_3D ( 'NONE', #40, #146, #191 ) ;
#73 = DIRECTION ( 'NONE',  ( -0.000000000000000000, -0.000000000000000000, -1.000000000000000000 ) ) ;
#74 = CARTESIAN_POINT ( 'NONE',  ( 0.000000000000000000, 0.000000000000000000, 0.000000000000000000 ) ) ;
#75 = LOCAL_TIME ( 11, 56, 6.000000000000000000, #241 ) ;
#76 = APPLICATION_PROTOCOL_DEFINITION ( 'international standard', 'config_control_design', 1994, #168 ) ;
#77 = CARTESIAN_POINT ( 'NONE',  ( -4.700000000000000178, 5.755839955992559655E-16, 4.999999999999991118 ) ) ;
#78 = APPLICATION_CONTEXT ( 'configuration controlled 3d designs of mechanical parts and assemblies' ) ;
#79 = PERSON_AND_ORGANIZATION_ROLE ( 'classification_officer' ) ;
#80 = AXIS2_PLACEMENT_3D ( 'NONE', #74, #99, #171 ) ;
#81 = PERSON_AND_ORGANIZATION ( #115, #65 ) ;
#82 = EDGE_LOOP ( 'NONE', ( #184, #199 ) ) ;
#83 = VERTEX_POINT ( 'NONE', #293 ) ;
#84 = AXIS2_PLACEMENT_3D ( 'NONE', #251, #195, #126 ) ;
#85 = APPROVAL_PERSON_ORGANIZATION ( #1, #59, #286 ) ;
#86 = ADVANCED_FACE ( 'NONE', ( #142 ), #248, .F. ) ;
#87 = CC_DESIGN_PERSON_AND_ORGANIZATION_ASSIGNMENT ( #81, #265, ( #111 ) ) ;
#88 = VERTEX_POINT ( 'NONE', #12 ) ;
#89 = ORIENTED_EDGE ( 'NONE', *, *, #244, .F. ) ;
#90 = ADVANCED_FACE ( 'NONE', ( #158, #245 ), #300, .T. ) ;
#91 = AXIS2_PLACEMENT_3D ( 'NONE', #22, #238, #216 ) ;
#92 = DIRECTION ( 'NONE',  ( 0.000000000000000000, 0.000000000000000000, 1.000000000000000000 ) ) ;
#93 = DIRECTION ( 'NONE',  ( 0.000000000000000000, 0.000000000000000000, 1.000000000000000000 ) ) ;
#94 = CIRCLE ( 'NONE', #215, 4.700000000000000178 ) ;
#95 = ORIENTED_EDGE ( 'NONE', *, *, #187, .T. ) ;
#96 = PERSON_AND_ORGANIZATION ( #115, #65 ) ;
#97 = EDGE_CURVE ( 'NONE', #33, #225, #54, .T. ) ;
#98 = VECTOR ( 'NONE', #131, 1000.000000000000000 ) ;
#99 = DIRECTION ( 'NONE',  ( 0.000000000000000000, 0.000000000000000000, 1.000000000000000000 ) ) ;
#100 = DATE_AND_TIME ( #189, #177 ) ;
#101 = DIRECTION ( 'NONE',  ( 1.000000000000000000, 0.000000000000000000, 0.000000000000000000 ) ) ;
#102 = DIRECTION ( 'NONE',  ( 0.000000000000000000, 0.000000000000000000, 1.000000000000000000 ) ) ;
#103 = CARTESIAN_POINT ( 'NONE',  ( 0.000000000000000000, 0.000000000000000000, 5.199999999999982414 ) ) ;
#104 = EDGE_CURVE ( 'NONE', #178, #179, #163, .T. ) ;
#105 = CARTESIAN_POINT ( 'NONE',  ( -4.500000000000000888, 0.000000000000000000, 805.0000000000000000 ) ) ;
#106 =( NAMED_UNIT ( * ) PLANE_ANGLE_UNIT ( ) SI_UNIT ( $, .RADIAN. ) );
#107 = SECURITY_CLASSIFICATION_LEVEL ( 'unclassified' ) ;
#108 = ORIENTED_EDGE ( 'NONE', *, *, #252, .T. ) ;
#109 = ORIENTED_EDGE ( 'NONE', *, *, #152, .F. ) ;
#110 = CALENDAR_DATE ( 2022, 7, 7 ) ;
#111 = PRODUCT_DEFINITION_FORMATION_WITH_SPECIFIED_SOURCE ( 'LIBOVOLNÝ', '', #290, .NOT_KNOWN. ) ;
#112 = ORIENTED_EDGE ( 'NONE', *, *, #258, .T. ) ;
#113 = DATE_TIME_ROLE ( 'classification_date' ) ;
#114 = EDGE_CURVE ( 'NONE', #179, #178, #175, .T. ) ;
#115 = PERSON ( 'NEURÈENÝ', 'NEURÈENÝ', 'NEURÈENÝ', ('NEURÈENÝ'), ('NEURÈENÝ'), ('NEURÈENÝ') ) ;
#116 = FACE_OUTER_BOUND ( 'NONE', #266, .T. ) ;
#117 = ADVANCED_FACE ( 'NONE', ( #45 ), #212, .T. ) ;
#118 = DIRECTION ( 'NONE',  ( 0.000000000000000000, 0.000000000000000000, 1.000000000000000000 ) ) ;
#119 = ORIENTED_EDGE ( 'NONE', *, *, #97, .F. ) ;
#120 = EDGE_LOOP ( 'NONE', ( #159, #58, #141, #64 ) ) ;
#121 = ORIENTED_EDGE ( 'NONE', *, *, #239, .F. ) ;
#122 = COORDINATED_UNIVERSAL_TIME_OFFSET ( 1, 0, .AHEAD. ) ;
#123 = CARTESIAN_POINT ( 'NONE',  ( -4.500000000000000888, 0.000000000000000000, 5.199999999999982414 ) ) ;
#124 = CARTESIAN_POINT ( 'NONE',  ( -7.000000000000000000, 0.000000000000000000, 5.000000000000000000 ) ) ;
#125 = APPROVAL_PERSON_ORGANIZATION ( #96, #285, #172 ) ;
#126 = DIRECTION ( 'NONE',  ( 1.000000000000000000, 0.000000000000000000, -0.000000000000000000 ) ) ;
#127 = CARTESIAN_POINT ( 'NONE',  ( 0.000000000000000000, 0.000000000000000000, 805.0000000000000000 ) ) ;
#128 = CARTESIAN_POINT ( 'NONE',  ( 0.000000000000000000, 0.000000000000000000, 5.199999999999982414 ) ) ;
#129 = CARTESIAN_POINT ( 'NONE',  ( 0.000000000000000000, 0.000000000000000000, 0.000000000000000000 ) ) ;
#130 = DIRECTION ( 'NONE',  ( 0.000000000000000000, 0.000000000000000000, -1.000000000000000000 ) ) ;
#131 = DIRECTION ( 'NONE',  ( -0.000000000000000000, -0.000000000000000000, -1.000000000000000000 ) ) ;
#132 = PERSON_AND_ORGANIZATION ( #115, #65 ) ;
#133 = SHAPE_DEFINITION_REPRESENTATION ( #205, #233 ) ;
#134 = APPROVAL_PERSON_ORGANIZATION ( #16, #272, #39 ) ;
#135 = ORIENTED_EDGE ( 'NONE', *, *, #203, .F. ) ;
#136 = VERTEX_POINT ( 'NONE', #38 ) ;
#137 = AXIS2_PLACEMENT_3D ( 'NONE', #232, #236, #130 ) ;
#138 = CC_DESIGN_SECURITY_CLASSIFICATION ( #196, ( #111 ) ) ;
#139 = DIRECTION ( 'NONE',  ( 1.000000000000000000, 0.000000000000000000, 0.000000000000000000 ) ) ;
#140 = ORIENTED_EDGE ( 'NONE', *, *, #104, .T. ) ;
#141 = ORIENTED_EDGE ( 'NONE', *, *, #182, .T. ) ;
#142 = FACE_OUTER_BOUND ( 'NONE', #204, .T. ) ;
#143 = DIRECTION ( 'NONE',  ( -1.000000000000000000, 0.000000000000000000, 0.000000000000000000 ) ) ;
#144 = COORDINATED_UNIVERSAL_TIME_OFFSET ( 1, 0, .AHEAD. ) ;
#145 = AXIS2_PLACEMENT_3D ( 'NONE', #28, #10, #139 ) ;
#146 = DIRECTION ( 'NONE',  ( 0.000000000000000000, 0.000000000000000000, 1.000000000000000000 ) ) ;
#147 = CYLINDRICAL_SURFACE ( 'NONE', #11, 7.000000000000000000 ) ;
#148 = MECHANICAL_CONTEXT ( 'NONE', #78, 'mechanical' ) ;
#149 = DIRECTION ( 'NONE',  ( -0.000000000000000000, -0.000000000000000000, -1.000000000000000000 ) ) ;
#150 = PERSON_AND_ORGANIZATION_ROLE ( 'design_owner' ) ;
#151 = AXIS2_PLACEMENT_3D ( 'NONE', #128, #214, #259 ) ;
#152 = EDGE_CURVE ( 'NONE', #179, #88, #263, .T. ) ;
#153 = COORDINATED_UNIVERSAL_TIME_OFFSET ( 1, 0, .AHEAD. ) ;
#154 = ORIENTED_EDGE ( 'NONE', *, *, #289, .T. ) ;
#155 = DATE_AND_TIME ( #5, #264 ) ;
#156 = ADVANCED_FACE ( 'NONE', ( #280 ), #301, .F. ) ;
#157 = AXIS2_PLACEMENT_3D ( 'NONE', #129, #304, #256 ) ;
#158 = FACE_BOUND ( 'NONE', #82, .T. ) ;
#159 = ORIENTED_EDGE ( 'NONE', *, *, #34, .F. ) ;
#160 = CC_DESIGN_PERSON_AND_ORGANIZATION_ASSIGNMENT ( #132, #79, ( #196 ) ) ;
#161 = CARTESIAN_POINT ( 'NONE',  ( 4.500000000000000888, 5.510910596163089556E-16, 805.0000000000000000 ) ) ;
#162 = CARTESIAN_POINT ( 'NONE',  ( 0.000000000000000000, 0.000000000000000000, 5.000000000000000000 ) ) ;
#163 = CIRCLE ( 'NONE', #151, 4.500000000000000888 ) ;
#164 = CARTESIAN_POINT ( 'NONE',  ( 0.000000000000000000, 0.000000000000000000, 805.0000000000000000 ) ) ;
#165 = CARTESIAN_POINT ( 'NONE',  ( 0.000000000000000000, 0.000000000000000000, 5.000000000000000000 ) ) ;
#166 = APPROVAL_DATE_TIME ( #47, #285 ) ;
#167 = DIRECTION ( 'NONE',  ( -0.000000000000000000, -0.000000000000000000, -1.000000000000000000 ) ) ;
#168 = APPLICATION_CONTEXT ( 'configuration controlled 3d designs of mechanical parts and assemblies' ) ;
#169 = CARTESIAN_POINT ( 'NONE',  ( 4.500000000000000888, 5.510910596163089556E-16, 805.0000000000000000 ) ) ;
#170 = DIRECTION ( 'NONE',  ( -0.000000000000000000, -0.000000000000000000, -1.000000000000000000 ) ) ;
#171 = DIRECTION ( 'NONE',  ( 1.000000000000000000, 0.000000000000000000, 0.000000000000000000 ) ) ;
#172 = APPROVAL_ROLE ( '' ) ;
#173 = CC_DESIGN_PERSON_AND_ORGANIZATION_ASSIGNMENT ( #3, #307, ( #111 ) ) ;
#174 = CIRCLE ( 'NONE', #200, 7.000000000000000000 ) ;
#175 = CIRCLE ( 'NONE', #72, 4.500000000000000888 ) ;
#176 = AXIS2_PLACEMENT_3D ( 'NONE', #103, #15, #17 ) ;
#177 = LOCAL_TIME ( 11, 56, 6.000000000000000000, #122 ) ;
#178 = VERTEX_POINT ( 'NONE', #123 ) ;
#179 = VERTEX_POINT ( 'NONE', #210 ) ;
#180 = EDGE_LOOP ( 'NONE', ( #2, #8, #89, #109 ) ) ;
#181 = CIRCLE ( 'NONE', #49, 4.700000000000000178 ) ;
#182 = EDGE_CURVE ( 'NONE', #268, #83, #30, .T. ) ;
#183 = ORIENTED_EDGE ( 'NONE', *, *, #278, .T. ) ;
#184 = ORIENTED_EDGE ( 'NONE', *, *, #244, .T. ) ;
#185 = CIRCLE ( 'NONE', #91, 4.500000000000000888 ) ;
#186 = ORIENTED_EDGE ( 'NONE', *, *, #114, .T. ) ;
#187 = EDGE_CURVE ( 'NONE', #136, #27, #185, .T. ) ;
#188 = CARTESIAN_POINT ( 'NONE',  ( 0.000000000000000000, 0.000000000000000000, 0.000000000000000000 ) ) ;
#189 = CALENDAR_DATE ( 2022, 7, 7 ) ;
#190 = AXIS2_PLACEMENT_3D ( 'NONE', #127, #213, #218 ) ;
#191 = DIRECTION ( 'NONE',  ( 1.000000000000000000, 0.000000000000000000, 0.000000000000000000 ) ) ;
#192 = PERSON_AND_ORGANIZATION ( #115, #65 ) ;
#193 = DIRECTION ( 'NONE',  ( -1.000000000000000000, 0.000000000000000000, 0.000000000000000000 ) ) ;
#194 =( LENGTH_UNIT ( ) NAMED_UNIT ( * ) SI_UNIT ( .MILLI., .METRE. ) );
#195 = DIRECTION ( 'NONE',  ( 0.000000000000000000, 0.000000000000000000, 1.000000000000000000 ) ) ;
#196 = SECURITY_CLASSIFICATION ( '', '', #107 ) ;
#197 = LINE ( 'NONE', #124, #36 ) ;
#198 = CC_DESIGN_DATE_AND_TIME_ASSIGNMENT ( #100, #67, ( #234 ) ) ;
#199 = ORIENTED_EDGE ( 'NONE', *, *, #29, .T. ) ;
#200 = AXIS2_PLACEMENT_3D ( 'NONE', #162, #118, #297 ) ;
#201 = CC_DESIGN_APPROVAL ( #272, ( #111 ) ) ;
#202 = ORIENTED_EDGE ( 'NONE', *, *, #29, .F. ) ;
#203 = EDGE_CURVE ( 'NONE', #225, #268, #303, .T. ) ;
#204 = EDGE_LOOP ( 'NONE', ( #292, #283 ) ) ;
#205 = PRODUCT_DEFINITION_SHAPE ( 'NONE', 'NONE',  #234 ) ;
#206 = CARTESIAN_POINT ( 'NONE',  ( -4.700000000000000178, 5.755839955992559655E-16, 5.199999999999982414 ) ) ;
#207 = DIRECTION ( 'NONE',  ( -1.000000000000000000, 0.000000000000000000, 0.000000000000000000 ) ) ;
#208 = DIRECTION ( 'NONE',  ( -1.000000000000000000, 1.224646799147353454E-16, 0.000000000000000000 ) ) ;
#209 = ORIENTED_EDGE ( 'NONE', *, *, #97, .T. ) ;
#210 = CARTESIAN_POINT ( 'NONE',  ( 4.500000000000000888, 5.510910596163089556E-16, 5.199999999999982414 ) ) ;
#211 = AXIS2_PLACEMENT_3D ( 'NONE', #237, #149, #143 ) ;
#212 = CYLINDRICAL_SURFACE ( 'NONE', #211, 4.500000000000000888 ) ;
#213 = DIRECTION ( 'NONE',  ( 0.000000000000000000, 0.000000000000000000, 1.000000000000000000 ) ) ;
#214 = DIRECTION ( 'NONE',  ( 0.000000000000000000, 0.000000000000000000, 1.000000000000000000 ) ) ;
#215 = AXIS2_PLACEMENT_3D ( 'NONE', #7, #62, #229 ) ;
#216 = DIRECTION ( 'NONE',  ( 1.000000000000000000, 0.000000000000000000, 0.000000000000000000 ) ) ;
#217 = ADVANCED_FACE ( 'NONE', ( #275 ), #147, .T. ) ;
#218 = DIRECTION ( 'NONE',  ( 1.000000000000000000, 0.000000000000000000, 0.000000000000000000 ) ) ;
#219 = ADVANCED_FACE ( 'NONE', ( #277 ), #70, .T. ) ;
#220 = AXIS2_PLACEMENT_3D ( 'NONE', #206, #61, #208 ) ;
#221 = ORIENTED_EDGE ( 'NONE', *, *, #34, .T. ) ;
#222 = TOROIDAL_SURFACE ( 'NONE', #145, 4.700000000000000178, 0.2000000000000000111 ) ;
#223 = EDGE_LOOP ( 'NONE', ( #270, #35, #267, #140 ) ) ;
#224 = AXIS2_PLACEMENT_3D ( 'NONE', #299, #102, #42 ) ;
#225 = VERTEX_POINT ( 'NONE', #20 ) ;
#226 = DIRECTION ( 'NONE',  ( -0.000000000000000000, -0.000000000000000000, -1.000000000000000000 ) ) ;
#227 = AXIS2_PLACEMENT_3D ( 'NONE', #164, #92, #32 ) ;
#228 = DESIGN_CONTEXT ( 'detailed design', #168, 'design' ) ;
#229 = DIRECTION ( 'NONE',  ( 1.000000000000000000, 0.000000000000000000, 0.000000000000000000 ) ) ;
#230 = DIRECTION ( 'NONE',  ( 1.000000000000000000, 0.000000000000000000, -0.000000000000000000 ) ) ;
#231 = PERSON_AND_ORGANIZATION ( #115, #65 ) ;
#232 = CARTESIAN_POINT ( 'NONE',  ( 4.700000000000000178, 0.000000000000000000, 5.199999999999982414 ) ) ;
#233 = ADVANCED_BREP_SHAPE_REPRESENTATION ( '1c9d', ( #306, #157 ), #44 ) ;
#234 = PRODUCT_DEFINITION ( 'NEZNÁMÝ', '', #111, #228 ) ;
#235 =( NAMED_UNIT ( * ) SI_UNIT ( $, .STERADIAN. ) SOLID_ANGLE_UNIT ( ) );
#236 = DIRECTION ( 'NONE',  ( 0.000000000000000000, -1.000000000000000000, 0.000000000000000000 ) ) ;
#237 = CARTESIAN_POINT ( 'NONE',  ( 0.000000000000000000, 0.000000000000000000, 805.0000000000000000 ) ) ;
#238 = DIRECTION ( 'NONE',  ( 0.000000000000000000, 0.000000000000000000, 1.000000000000000000 ) ) ;
#239 = EDGE_CURVE ( 'NONE', #136, #178, #19, .T. ) ;
#240 = COORDINATED_UNIVERSAL_TIME_OFFSET ( 1, 0, .AHEAD. ) ;
#241 = COORDINATED_UNIVERSAL_TIME_OFFSET ( 1, 0, .AHEAD. ) ;
#242 = AXIS2_PLACEMENT_3D ( 'NONE', #188, #93, #230 ) ;
#243 = CIRCLE ( 'NONE', #190, 4.500000000000000888 ) ;
#244 = EDGE_CURVE ( 'NONE', #88, #287, #181, .T. ) ;
#245 = FACE_OUTER_BOUND ( 'NONE', #57, .T. ) ;
#246 = ORIENTED_EDGE ( 'NONE', *, *, #52, .F. ) ;
#247 = FACE_OUTER_BOUND ( 'NONE', #120, .T. ) ;
#248 = PLANE ( 'NONE',  #242 ) ;
#249 = AXIS2_PLACEMENT_3D ( 'NONE', #165, #253, #101 ) ;
#250 = FACE_OUTER_BOUND ( 'NONE', #9, .T. ) ;
#251 = CARTESIAN_POINT ( 'NONE',  ( 0.000000000000000000, 0.000000000000000000, 5.000000000000000000 ) ) ;
#252 = EDGE_CURVE ( 'NONE', #27, #179, #260, .T. ) ;
#253 = DIRECTION ( 'NONE',  ( 0.000000000000000000, 0.000000000000000000, 1.000000000000000000 ) ) ;
#254 = DIRECTION ( 'NONE',  ( -0.000000000000000000, -0.000000000000000000, -1.000000000000000000 ) ) ;
#255 = DIRECTION ( 'NONE',  ( -1.000000000000000000, 0.000000000000000000, 0.000000000000000000 ) ) ;
#256 = DIRECTION ( 'NONE',  ( 1.000000000000000000, 0.000000000000000000, 0.000000000000000000 ) ) ;
#257 = VECTOR ( 'NONE', #66, 1000.000000000000000 ) ;
#258 = EDGE_CURVE ( 'NONE', #33, #83, #197, .T. ) ;
#259 = DIRECTION ( 'NONE',  ( 1.000000000000000000, 0.000000000000000000, 0.000000000000000000 ) ) ;
#260 = LINE ( 'NONE', #169, #98 ) ;
#261 = APPROVAL_STATUS ( 'not_yet_approved' ) ;
#262 = ORIENTED_EDGE ( 'NONE', *, *, #278, .F. ) ;
#263 = CIRCLE ( 'NONE', #137, 0.1999999999999996503 ) ;
#264 = LOCAL_TIME ( 11, 56, 6.000000000000000000, #144 ) ;
#265 = PERSON_AND_ORGANIZATION_ROLE ( 'design_supplier' ) ;
#266 = EDGE_LOOP ( 'NONE', ( #246, #26, #55, #202 ) ) ;
#267 = ORIENTED_EDGE ( 'NONE', *, *, #239, .T. ) ;
#268 = VERTEX_POINT ( 'NONE', #21 ) ;
#269 = PLANE ( 'NONE',  #227 ) ;
#270 = ORIENTED_EDGE ( 'NONE', *, *, #252, .F. ) ;
#271 = EDGE_LOOP ( 'NONE', ( #262, #108, #186, #121 ) ) ;
#272 = APPROVAL ( #274, 'NEURÈENÝ' ) ;
#273 = CARTESIAN_POINT ( 'NONE',  ( 7.000000000000000000, 8.572527594031473190E-16, 5.000000000000000000 ) ) ;
#274 = APPROVAL_STATUS ( 'not_yet_approved' ) ;
#275 = FACE_OUTER_BOUND ( 'NONE', #50, .T. ) ;
#276 = DIRECTION ( 'NONE',  ( -0.000000000000000000, -0.000000000000000000, -1.000000000000000000 ) ) ;
#277 = FACE_OUTER_BOUND ( 'NONE', #271, .T. ) ;
#278 = EDGE_CURVE ( 'NONE', #27, #136, #243, .T. ) ;
#279 = APPLICATION_PROTOCOL_DEFINITION ( 'international standard', 'config_control_design', 1994, #78 ) ;
#280 = FACE_OUTER_BOUND ( 'NONE', #180, .T. ) ;
#281 = PRODUCT_RELATED_PRODUCT_CATEGORY ( 'detail', '', ( #290 ) ) ;
#282 = LOCAL_TIME ( 11, 56, 6.000000000000000000, #240 ) ;
#283 = ORIENTED_EDGE ( 'NONE', *, *, #182, .F. ) ;
#284 = APPROVAL_DATE_TIME ( #155, #272 ) ;
#285 = APPROVAL ( #261, 'NEURÈENÝ' ) ;
#286 = APPROVAL_ROLE ( '' ) ;
#287 = VERTEX_POINT ( 'NONE', #77 ) ;
#288 = APPROVAL_DATE_TIME ( #48, #59 ) ;
#289 = EDGE_CURVE ( 'NONE', #83, #268, #305, .T. ) ;
#290 = PRODUCT ( '1c9d', '1c9d', '', ( #148 ) ) ;
#291 = CARTESIAN_POINT ( 'NONE',  ( -7.000000000000000000, 0.000000000000000000, 5.000000000000000000 ) ) ;
#292 = ORIENTED_EDGE ( 'NONE', *, *, #289, .F. ) ;
#293 = CARTESIAN_POINT ( 'NONE',  ( -7.000000000000000000, 0.000000000000000000, 0.000000000000000000 ) ) ;
#294 = CC_DESIGN_APPROVAL ( #59, ( #196 ) ) ;
#295 = CYLINDRICAL_SURFACE ( 'NONE', #71, 7.000000000000000000 ) ;
#296 = CC_DESIGN_PERSON_AND_ORGANIZATION_ASSIGNMENT ( #231, #14, ( #234 ) ) ;
#297 = DIRECTION ( 'NONE',  ( 1.000000000000000000, 0.000000000000000000, 0.000000000000000000 ) ) ;
#298 = CLOSED_SHELL ( 'NONE', ( #156, #219, #56, #217, #90, #86, #117, #4, #24 ) ) ;
#299 = CARTESIAN_POINT ( 'NONE',  ( 0.000000000000000000, 0.000000000000000000, 0.000000000000000000 ) ) ;
#300 = PLANE ( 'NONE',  #84 ) ;
#301 = TOROIDAL_SURFACE ( 'NONE', #176, 4.700000000000000178, 0.2000000000000000111 ) ;
#302 = DIRECTION ( 'NONE',  ( 1.000000000000000000, 0.000000000000000000, 0.000000000000000000 ) ) ;
#303 = LINE ( 'NONE', #273, #257 ) ;
#304 = DIRECTION ( 'NONE',  ( 0.000000000000000000, 0.000000000000000000, 1.000000000000000000 ) ) ;
#305 = CIRCLE ( 'NONE', #224, 7.000000000000000000 ) ;
#306 = MANIFOLD_SOLID_BREP ( 'Zaoblit1', #298 ) ;
#307 = PERSON_AND_ORGANIZATION_ROLE ( 'creator' ) ;
ENDSEC;
END-ISO-10303-21;
