ISO-10303-21;
HEADER;
FILE_DESCRIPTION (( 'STEP AP203' ),
    '1' );
FILE_NAME ('2867.STEP',
    '2023-02-12T12:05:42',
    ( '' ),
    ( '' ),
    'SwSTEP 2.0',
    'SolidWorks 2019',
    '' );
FILE_SCHEMA (( 'CONFIG_CONTROL_DESIGN' ));
ENDSEC;

DATA;
#1 = AXIS2_PLACEMENT_3D ( 'NONE', #221, #46, #203 ) ;
#2 = CARTESIAN_POINT ( 'NONE',  ( -3.500000000000000000, 0.000000000000000000, 160.0000000000000000 ) ) ;
#3 = FACE_OUTER_BOUND ( 'NONE', #201, .T. ) ;
#4 = EDGE_CURVE ( 'NONE', #196, #178, #58, .T. ) ;
#5 = CARTESIAN_POINT ( 'NONE',  ( 0.000000000000000000, 0.000000000000000000, 160.0000000000000000 ) ) ;
#6 = CARTESIAN_POINT ( 'NONE',  ( -6.000000000000000888, 0.000000000000000000, 5.000000000000000000 ) ) ;
#7 = AXIS2_PLACEMENT_3D ( 'NONE', #255, #81, #217 ) ;
#8 = CARTESIAN_POINT ( 'NONE',  ( -6.000000000000000888, 0.000000000000000000, 0.000000000000000000 ) ) ;
#9 = LOCAL_TIME ( 13, 5, 42.00000000000000000, #159 ) ;
#10 = CARTESIAN_POINT ( 'NONE',  ( 0.000000000000000000, 0.000000000000000000, 160.0000000000000000 ) ) ;
#11 = CARTESIAN_POINT ( 'NONE',  ( 0.000000000000000000, 0.000000000000000000, 0.000000000000000000 ) ) ;
#12 = DIRECTION ( 'NONE',  ( 1.000000000000000000, 0.000000000000000000, -0.000000000000000000 ) ) ;
#13 = APPROVAL_DATE_TIME ( #95, #57 ) ;
#14 = VECTOR ( 'NONE', #61, 1000.000000000000000 ) ;
#15 = DATE_TIME_ROLE ( 'creation_date' ) ;
#16 = ORIENTED_EDGE ( 'NONE', *, *, #112, .F. ) ;
#17 = LOCAL_TIME ( 13, 5, 42.00000000000000000, #55 ) ;
#18 = EDGE_CURVE ( 'NONE', #43, #196, #79, .T. ) ;
#19 = CALENDAR_DATE ( 2023, 12, 2 ) ;
#20 = VERTEX_POINT ( 'NONE', #96 ) ;
#21 = DATE_AND_TIME ( #209, #218 ) ;
#22 = PRODUCT_DEFINITION_FORMATION_WITH_SPECIFIED_SOURCE ( 'LIBOVOLNÝ', '', #180, .NOT_KNOWN. ) ;
#23 = ORIENTED_EDGE ( 'NONE', *, *, #169, .F. ) ;
#24 = ORIENTED_EDGE ( 'NONE', *, *, #68, .T. ) ;
#25 = ORIENTED_EDGE ( 'NONE', *, *, #77, .T. ) ;
#26 = DIRECTION ( 'NONE',  ( 1.000000000000000000, 0.000000000000000000, -0.000000000000000000 ) ) ;
#27 = ORIENTED_EDGE ( 'NONE', *, *, #128, .F. ) ;
#28 = DIRECTION ( 'NONE',  ( -0.000000000000000000, -0.000000000000000000, -1.000000000000000000 ) ) ;
#29 = DIRECTION ( 'NONE',  ( 0.000000000000000000, 0.000000000000000000, 1.000000000000000000 ) ) ;
#30 = CC_DESIGN_APPROVAL ( #240, ( #100 ) ) ;
#31 = DIRECTION ( 'NONE',  ( -0.000000000000000000, -0.000000000000000000, -1.000000000000000000 ) ) ;
#32 = APPLICATION_PROTOCOL_DEFINITION ( 'international standard', 'config_control_design', 1994, #190 ) ;
#33 = EDGE_CURVE ( 'NONE', #41, #251, #42, .T. ) ;
#34 = LOCAL_TIME ( 13, 5, 42.00000000000000000, #156 ) ;
#35 = UNCERTAINTY_MEASURE_WITH_UNIT (LENGTH_MEASURE( 1.000000000000000082E-05 ), #126, 'distance_accuracy_value', 'NONE');
#36 = PERSON_AND_ORGANIZATION_ROLE ( 'design_owner' ) ;
#37 = PERSON_AND_ORGANIZATION ( #222, #202 ) ;
#38 = APPROVAL_DATE_TIME ( #215, #195 ) ;
#39 = APPROVAL_STATUS ( 'not_yet_approved' ) ;
#40 = APPROVAL_STATUS ( 'not_yet_approved' ) ;
#41 = VERTEX_POINT ( 'NONE', #199 ) ;
#42 = LINE ( 'NONE', #6, #205 ) ;
#43 = VERTEX_POINT ( 'NONE', #238 ) ;
#44 = CARTESIAN_POINT ( 'NONE',  ( 3.500000000000000000, 4.286263797015736595E-16, 160.0000000000000000 ) ) ;
#45 = DIRECTION ( 'NONE',  ( 1.000000000000000000, 0.000000000000000000, 0.000000000000000000 ) ) ;
#46 = DIRECTION ( 'NONE',  ( 0.000000000000000000, 0.000000000000000000, 1.000000000000000000 ) ) ;
#47 = PLANE ( 'NONE',  #149 ) ;
#48 =( NAMED_UNIT ( * ) PLANE_ANGLE_UNIT ( ) SI_UNIT ( $, .RADIAN. ) );
#49 = FACE_OUTER_BOUND ( 'NONE', #237, .T. ) ;
#50 = FACE_OUTER_BOUND ( 'NONE', #99, .T. ) ;
#51 = PERSON_AND_ORGANIZATION_ROLE ( 'creator' ) ;
#52 = APPROVAL_PERSON_ORGANIZATION ( #161, #195, #136 ) ;
#53 = CC_DESIGN_PERSON_AND_ORGANIZATION_ASSIGNMENT ( #76, #36, ( #180 ) ) ;
#54 = CIRCLE ( 'NONE', #233, 3.500000000000000000 ) ;
#55 = COORDINATED_UNIVERSAL_TIME_OFFSET ( 1, 0, .AHEAD. ) ;
#56 = PERSON_AND_ORGANIZATION ( #222, #202 ) ;
#57 = APPROVAL ( #39, 'NEURÈENÝ' ) ;
#58 = CIRCLE ( 'NONE', #7, 3.500000000000000000 ) ;
#59 = ORIENTED_EDGE ( 'NONE', *, *, #77, .F. ) ;
#60 = CC_DESIGN_SECURITY_CLASSIFICATION ( #100, ( #22 ) ) ;
#61 = DIRECTION ( 'NONE',  ( -0.000000000000000000, -0.000000000000000000, -1.000000000000000000 ) ) ;
#62 = CARTESIAN_POINT ( 'NONE',  ( 0.000000000000000000, 0.000000000000000000, 5.000000000000000000 ) ) ;
#63 = ORIENTED_EDGE ( 'NONE', *, *, #4, .T. ) ;
#64 = PLANE ( 'NONE',  #168 ) ;
#65 = FACE_OUTER_BOUND ( 'NONE', #111, .T. ) ;
#66 = CARTESIAN_POINT ( 'NONE',  ( 0.000000000000000000, 0.000000000000000000, 160.0000000000000000 ) ) ;
#67 = LOCAL_TIME ( 13, 5, 42.00000000000000000, #194 ) ;
#68 = EDGE_CURVE ( 'NONE', #251, #83, #108, .T. ) ;
#69 = DIRECTION ( 'NONE',  ( 0.000000000000000000, 0.000000000000000000, 1.000000000000000000 ) ) ;
#70 = ADVANCED_BREP_SHAPE_REPRESENTATION ( '2867', ( #140, #78 ), #212 ) ;
#71 = PERSON_AND_ORGANIZATION_ROLE ( 'design_supplier' ) ;
#72 = APPROVAL_ROLE ( '' ) ;
#73 = DESIGN_CONTEXT ( 'detailed design', #236, 'design' ) ;
#74 = PERSON_AND_ORGANIZATION_ROLE ( 'creator' ) ;
#75 = APPLICATION_PROTOCOL_DEFINITION ( 'international standard', 'config_control_design', 1994, #236 ) ;
#76 = PERSON_AND_ORGANIZATION ( #222, #202 ) ;
#77 = EDGE_CURVE ( 'NONE', #101, #43, #144, .T. ) ;
#78 = AXIS2_PLACEMENT_3D ( 'NONE', #11, #211, #113 ) ;
#79 = LINE ( 'NONE', #44, #155 ) ;
#80 = CIRCLE ( 'NONE', #1, 6.000000000000000888 ) ;
#81 = DIRECTION ( 'NONE',  ( 0.000000000000000000, 0.000000000000000000, 1.000000000000000000 ) ) ;
#82 = PLANE ( 'NONE',  #122 ) ;
#83 = VERTEX_POINT ( 'NONE', #166 ) ;
#84 = EDGE_LOOP ( 'NONE', ( #142, #216 ) ) ;
#85 = PRODUCT_DEFINITION ( 'NEZNÁMÝ', '', #22, #73 ) ;
#86 = DIRECTION ( 'NONE',  ( 1.000000000000000000, 0.000000000000000000, 0.000000000000000000 ) ) ;
#87 = EDGE_CURVE ( 'NONE', #20, #83, #183, .T. ) ;
#88 = CARTESIAN_POINT ( 'NONE',  ( 0.000000000000000000, 0.000000000000000000, 5.000000000000000000 ) ) ;
#89 = SECURITY_CLASSIFICATION_LEVEL ( 'unclassified' ) ;
#90 = AXIS2_PLACEMENT_3D ( 'NONE', #5, #97, #45 ) ;
#91 = PERSON_AND_ORGANIZATION ( #222, #202 ) ;
#92 = APPROVAL_STATUS ( 'not_yet_approved' ) ;
#93 = SHAPE_DEFINITION_REPRESENTATION ( #134, #70 ) ;
#94 = ORIENTED_EDGE ( 'NONE', *, *, #68, .F. ) ;
#95 = DATE_AND_TIME ( #249, #67 ) ;
#96 = CARTESIAN_POINT ( 'NONE',  ( 6.000000000000000888, 7.347880794884120722E-16, 5.000000000000000000 ) ) ;
#97 = DIRECTION ( 'NONE',  ( 0.000000000000000000, 0.000000000000000000, 1.000000000000000000 ) ) ;
#98 = CIRCLE ( 'NONE', #244, 6.000000000000000888 ) ;
#99 = EDGE_LOOP ( 'NONE', ( #94, #27 ) ) ;
#100 = SECURITY_CLASSIFICATION ( '', '', #89 ) ;
#101 = VERTEX_POINT ( 'NONE', #2 ) ;
#102 = CC_DESIGN_DATE_AND_TIME_ASSIGNMENT ( #21, #15, ( #85 ) ) ;
#103 = EDGE_LOOP ( 'NONE', ( #160, #59, #182, #235 ) ) ;
#104 = DIRECTION ( 'NONE',  ( 1.000000000000000000, 0.000000000000000000, -0.000000000000000000 ) ) ;
#105 = DIRECTION ( 'NONE',  ( 0.000000000000000000, 0.000000000000000000, 1.000000000000000000 ) ) ;
#106 = DIRECTION ( 'NONE',  ( 0.000000000000000000, 0.000000000000000000, 1.000000000000000000 ) ) ;
#107 = CC_DESIGN_PERSON_AND_ORGANIZATION_ASSIGNMENT ( #37, #110, ( #100 ) ) ;
#108 = CIRCLE ( 'NONE', #253, 6.000000000000000888 ) ;
#109 = DIRECTION ( 'NONE',  ( 0.000000000000000000, 0.000000000000000000, 1.000000000000000000 ) ) ;
#110 = PERSON_AND_ORGANIZATION_ROLE ( 'classification_officer' ) ;
#111 = EDGE_LOOP ( 'NONE', ( #25, #141 ) ) ;
#112 = EDGE_CURVE ( 'NONE', #101, #178, #164, .T. ) ;
#113 = DIRECTION ( 'NONE',  ( 1.000000000000000000, 0.000000000000000000, 0.000000000000000000 ) ) ;
#114 = ORIENTED_EDGE ( 'NONE', *, *, #18, .T. ) ;
#115 = DIRECTION ( 'NONE',  ( -0.000000000000000000, -0.000000000000000000, -1.000000000000000000 ) ) ;
#116 = ORIENTED_EDGE ( 'NONE', *, *, #87, .T. ) ;
#117 = DIRECTION ( 'NONE',  ( 1.000000000000000000, 0.000000000000000000, 0.000000000000000000 ) ) ;
#118 = DIRECTION ( 'NONE',  ( 0.000000000000000000, 0.000000000000000000, 1.000000000000000000 ) ) ;
#119 = ADVANCED_FACE ( 'NONE', ( #184, #3 ), #82, .T. ) ;
#120 = ORIENTED_EDGE ( 'NONE', *, *, #176, .T. ) ;
#121 = DIRECTION ( 'NONE',  ( -0.000000000000000000, -0.000000000000000000, -1.000000000000000000 ) ) ;
#122 = AXIS2_PLACEMENT_3D ( 'NONE', #62, #118, #26 ) ;
#123 =( NAMED_UNIT ( * ) SI_UNIT ( $, .STERADIAN. ) SOLID_ANGLE_UNIT ( ) );
#124 = CC_DESIGN_APPROVAL ( #195, ( #85 ) ) ;
#125 = CARTESIAN_POINT ( 'NONE',  ( 0.000000000000000000, 0.000000000000000000, 0.000000000000000000 ) ) ;
#126 =( LENGTH_UNIT ( ) NAMED_UNIT ( * ) SI_UNIT ( .MILLI., .METRE. ) );
#127 = CARTESIAN_POINT ( 'NONE',  ( 0.000000000000000000, 0.000000000000000000, 5.000000000000000000 ) ) ;
#128 = EDGE_CURVE ( 'NONE', #83, #251, #80, .T. ) ;
#129 = AXIS2_PLACEMENT_3D ( 'NONE', #88, #28, #171 ) ;
#130 = PERSON_AND_ORGANIZATION ( #222, #202 ) ;
#131 = PERSON_AND_ORGANIZATION ( #222, #202 ) ;
#132 = ADVANCED_FACE ( 'NONE', ( #65 ), #47, .T. ) ;
#133 = DATE_TIME_ROLE ( 'classification_date' ) ;
#134 = PRODUCT_DEFINITION_SHAPE ( 'NONE', 'NONE',  #85 ) ;
#135 = CC_DESIGN_PERSON_AND_ORGANIZATION_ASSIGNMENT ( #193, #71, ( #22 ) ) ;
#136 = APPROVAL_ROLE ( '' ) ;
#137 = ORIENTED_EDGE ( 'NONE', *, *, #128, .T. ) ;
#138 = ORIENTED_EDGE ( 'NONE', *, *, #33, .T. ) ;
#139 = ADVANCED_FACE ( 'NONE', ( #172 ), #241, .T. ) ;
#140 = MANIFOLD_SOLID_BREP ( 'Pøidat vysunutím3', #248 ) ;
#141 = ORIENTED_EDGE ( 'NONE', *, *, #174, .T. ) ;
#142 = ORIENTED_EDGE ( 'NONE', *, *, #214, .F. ) ;
#143 = ORIENTED_EDGE ( 'NONE', *, *, #176, .F. ) ;
#144 = CIRCLE ( 'NONE', #90, 3.500000000000000000 ) ;
#145 = CARTESIAN_POINT ( 'NONE',  ( 6.000000000000000888, 7.347880794884120722E-16, 5.000000000000000000 ) ) ;
#146 = AXIS2_PLACEMENT_3D ( 'NONE', #152, #69, #192 ) ;
#147 = DIRECTION ( 'NONE',  ( 0.000000000000000000, 0.000000000000000000, 1.000000000000000000 ) ) ;
#148 = CYLINDRICAL_SURFACE ( 'NONE', #191, 3.500000000000000000 ) ;
#149 = AXIS2_PLACEMENT_3D ( 'NONE', #187, #106, #12 ) ;
#150 = CYLINDRICAL_SURFACE ( 'NONE', #129, 6.000000000000000888 ) ;
#151 = AXIS2_PLACEMENT_3D ( 'NONE', #170, #31, #228 ) ;
#152 = CARTESIAN_POINT ( 'NONE',  ( 0.000000000000000000, 0.000000000000000000, 5.000000000000000000 ) ) ;
#153 = FACE_OUTER_BOUND ( 'NONE', #198, .T. ) ;
#154 = CC_DESIGN_PERSON_AND_ORGANIZATION_ASSIGNMENT ( #130, #51, ( #85 ) ) ;
#155 = VECTOR ( 'NONE', #232, 1000.000000000000000 ) ;
#156 = COORDINATED_UNIVERSAL_TIME_OFFSET ( 1, 0, .AHEAD. ) ;
#157 = PRODUCT_RELATED_PRODUCT_CATEGORY ( 'detail', '', ( #180 ) ) ;
#158 = CIRCLE ( 'NONE', #239, 6.000000000000000888 ) ;
#159 = COORDINATED_UNIVERSAL_TIME_OFFSET ( 1, 0, .AHEAD. ) ;
#160 = ORIENTED_EDGE ( 'NONE', *, *, #18, .F. ) ;
#161 = PERSON_AND_ORGANIZATION ( #222, #202 ) ;
#162 = APPROVAL_PERSON_ORGANIZATION ( #91, #57, #175 ) ;
#163 = ORIENTED_EDGE ( 'NONE', *, *, #87, .F. ) ;
#164 = LINE ( 'NONE', #234, #14 ) ;
#165 = CARTESIAN_POINT ( 'NONE',  ( 0.000000000000000000, 0.000000000000000000, 0.000000000000000000 ) ) ;
#166 = CARTESIAN_POINT ( 'NONE',  ( 6.000000000000000888, 7.347880794884120722E-16, 0.000000000000000000 ) ) ;
#167 = ORIENTED_EDGE ( 'NONE', *, *, #169, .T. ) ;
#168 = AXIS2_PLACEMENT_3D ( 'NONE', #125, #105, #104 ) ;
#169 = EDGE_CURVE ( 'NONE', #20, #41, #98, .T. ) ;
#170 = CARTESIAN_POINT ( 'NONE',  ( 0.000000000000000000, 0.000000000000000000, 5.000000000000000000 ) ) ;
#171 = DIRECTION ( 'NONE',  ( -1.000000000000000000, 0.000000000000000000, 0.000000000000000000 ) ) ;
#172 = FACE_OUTER_BOUND ( 'NONE', #103, .T. ) ;
#173 = DIRECTION ( 'NONE',  ( -1.000000000000000000, 0.000000000000000000, 0.000000000000000000 ) ) ;
#174 = EDGE_CURVE ( 'NONE', #43, #101, #54, .T. ) ;
#175 = APPROVAL_ROLE ( '' ) ;
#176 = EDGE_CURVE ( 'NONE', #41, #20, #158, .T. ) ;
#177 = DATE_AND_TIME ( #19, #17 ) ;
#178 = VERTEX_POINT ( 'NONE', #223 ) ;
#179 = DATE_AND_TIME ( #213, #9 ) ;
#180 = PRODUCT ( '2867', '2867', '', ( #181 ) ) ;
#181 = MECHANICAL_CONTEXT ( 'NONE', #190, 'mechanical' ) ;
#182 = ORIENTED_EDGE ( 'NONE', *, *, #112, .T. ) ;
#183 = LINE ( 'NONE', #145, #231 ) ;
#184 = FACE_BOUND ( 'NONE', #84, .T. ) ;
#185 = DIRECTION ( 'NONE',  ( 0.000000000000000000, 0.000000000000000000, 1.000000000000000000 ) ) ;
#186 = ORIENTED_EDGE ( 'NONE', *, *, #174, .F. ) ;
#187 = CARTESIAN_POINT ( 'NONE',  ( 0.000000000000000000, 0.000000000000000000, 160.0000000000000000 ) ) ;
#188 = DIRECTION ( 'NONE',  ( 1.000000000000000000, 0.000000000000000000, 0.000000000000000000 ) ) ;
#189 = ADVANCED_FACE ( 'NONE', ( #50 ), #64, .F. ) ;
#190 = APPLICATION_CONTEXT ( 'configuration controlled 3d designs of mechanical parts and assemblies' ) ;
#191 = AXIS2_PLACEMENT_3D ( 'NONE', #66, #204, #246 ) ;
#192 = DIRECTION ( 'NONE',  ( 1.000000000000000000, 0.000000000000000000, 0.000000000000000000 ) ) ;
#193 = PERSON_AND_ORGANIZATION ( #222, #202 ) ;
#194 = COORDINATED_UNIVERSAL_TIME_OFFSET ( 1, 0, .AHEAD. ) ;
#195 = APPROVAL ( #40, 'NEURÈENÝ' ) ;
#196 = VERTEX_POINT ( 'NONE', #206 ) ;
#197 = CC_DESIGN_APPROVAL ( #57, ( #22 ) ) ;
#198 = EDGE_LOOP ( 'NONE', ( #23, #116, #137, #220 ) ) ;
#199 = CARTESIAN_POINT ( 'NONE',  ( -6.000000000000000888, 0.000000000000000000, 5.000000000000000000 ) ) ;
#200 = EDGE_LOOP ( 'NONE', ( #186, #114, #63, #16 ) ) ;
#201 = EDGE_LOOP ( 'NONE', ( #120, #167 ) ) ;
#202 = ORGANIZATION ( 'NEURÈENÝ', 'NEURÈENÝ', '' ) ;
#203 = DIRECTION ( 'NONE',  ( 1.000000000000000000, 0.000000000000000000, 0.000000000000000000 ) ) ;
#204 = DIRECTION ( 'NONE',  ( -0.000000000000000000, -0.000000000000000000, -1.000000000000000000 ) ) ;
#205 = VECTOR ( 'NONE', #219, 1000.000000000000000 ) ;
#206 = CARTESIAN_POINT ( 'NONE',  ( 3.500000000000000000, 4.286263797015736595E-16, 5.000000000000000000 ) ) ;
#207 = ADVANCED_FACE ( 'NONE', ( #245 ), #148, .T. ) ;
#208 = CC_DESIGN_PERSON_AND_ORGANIZATION_ASSIGNMENT ( #131, #74, ( #22 ) ) ;
#209 = CALENDAR_DATE ( 2023, 12, 2 ) ;
#210 = AXIS2_PLACEMENT_3D ( 'NONE', #243, #121, #173 ) ;
#211 = DIRECTION ( 'NONE',  ( 0.000000000000000000, 0.000000000000000000, 1.000000000000000000 ) ) ;
#212 =( GEOMETRIC_REPRESENTATION_CONTEXT ( 3 ) GLOBAL_UNCERTAINTY_ASSIGNED_CONTEXT ( ( #35 ) ) GLOBAL_UNIT_ASSIGNED_CONTEXT ( ( #126, #48, #123 ) ) REPRESENTATION_CONTEXT ( 'NONE', 'WORKASPACE' ) );
#213 = CALENDAR_DATE ( 2023, 12, 2 ) ;
#214 = EDGE_CURVE ( 'NONE', #178, #196, #254, .T. ) ;
#215 = DATE_AND_TIME ( #252, #34 ) ;
#216 = ORIENTED_EDGE ( 'NONE', *, *, #4, .F. ) ;
#217 = DIRECTION ( 'NONE',  ( 1.000000000000000000, 0.000000000000000000, 0.000000000000000000 ) ) ;
#218 = LOCAL_TIME ( 13, 5, 42.00000000000000000, #229 ) ;
#219 = DIRECTION ( 'NONE',  ( -0.000000000000000000, -0.000000000000000000, -1.000000000000000000 ) ) ;
#220 = ORIENTED_EDGE ( 'NONE', *, *, #33, .F. ) ;
#221 = CARTESIAN_POINT ( 'NONE',  ( 0.000000000000000000, 0.000000000000000000, 0.000000000000000000 ) ) ;
#222 = PERSON ( 'NEURÈENÝ', 'NEURÈENÝ', 'NEURÈENÝ', ('NEURÈENÝ'), ('NEURÈENÝ'), ('NEURÈENÝ') ) ;
#223 = CARTESIAN_POINT ( 'NONE',  ( -3.500000000000000000, 0.000000000000000000, 5.000000000000000000 ) ) ;
#224 = CYLINDRICAL_SURFACE ( 'NONE', #151, 6.000000000000000888 ) ;
#225 = DIRECTION ( 'NONE',  ( 1.000000000000000000, 0.000000000000000000, 0.000000000000000000 ) ) ;
#226 = CARTESIAN_POINT ( 'NONE',  ( 0.000000000000000000, 0.000000000000000000, 5.000000000000000000 ) ) ;
#227 = CC_DESIGN_DATE_AND_TIME_ASSIGNMENT ( #177, #133, ( #100 ) ) ;
#228 = DIRECTION ( 'NONE',  ( -1.000000000000000000, 0.000000000000000000, 0.000000000000000000 ) ) ;
#229 = COORDINATED_UNIVERSAL_TIME_OFFSET ( 1, 0, .AHEAD. ) ;
#230 = ADVANCED_FACE ( 'NONE', ( #153 ), #150, .T. ) ;
#231 = VECTOR ( 'NONE', #115, 1000.000000000000000 ) ;
#232 = DIRECTION ( 'NONE',  ( -0.000000000000000000, -0.000000000000000000, -1.000000000000000000 ) ) ;
#233 = AXIS2_PLACEMENT_3D ( 'NONE', #10, #147, #86 ) ;
#234 = CARTESIAN_POINT ( 'NONE',  ( -3.500000000000000000, 0.000000000000000000, 160.0000000000000000 ) ) ;
#235 = ORIENTED_EDGE ( 'NONE', *, *, #214, .T. ) ;
#236 = APPLICATION_CONTEXT ( 'configuration controlled 3d designs of mechanical parts and assemblies' ) ;
#237 = EDGE_LOOP ( 'NONE', ( #163, #143, #138, #24 ) ) ;
#238 = CARTESIAN_POINT ( 'NONE',  ( 3.500000000000000000, 4.286263797015736595E-16, 160.0000000000000000 ) ) ;
#239 = AXIS2_PLACEMENT_3D ( 'NONE', #127, #109, #225 ) ;
#240 = APPROVAL ( #92, 'NEURÈENÝ' ) ;
#241 = CYLINDRICAL_SURFACE ( 'NONE', #210, 3.500000000000000000 ) ;
#242 = ADVANCED_FACE ( 'NONE', ( #49 ), #224, .T. ) ;
#243 = CARTESIAN_POINT ( 'NONE',  ( 0.000000000000000000, 0.000000000000000000, 160.0000000000000000 ) ) ;
#244 = AXIS2_PLACEMENT_3D ( 'NONE', #226, #29, #188 ) ;
#245 = FACE_OUTER_BOUND ( 'NONE', #200, .T. ) ;
#246 = DIRECTION ( 'NONE',  ( -1.000000000000000000, 0.000000000000000000, 0.000000000000000000 ) ) ;
#247 = APPROVAL_DATE_TIME ( #179, #240 ) ;
#248 = CLOSED_SHELL ( 'NONE', ( #207, #230, #242, #119, #189, #139, #132 ) ) ;
#249 = CALENDAR_DATE ( 2023, 12, 2 ) ;
#250 = APPROVAL_PERSON_ORGANIZATION ( #56, #240, #72 ) ;
#251 = VERTEX_POINT ( 'NONE', #8 ) ;
#252 = CALENDAR_DATE ( 2023, 12, 2 ) ;
#253 = AXIS2_PLACEMENT_3D ( 'NONE', #165, #185, #117 ) ;
#254 = CIRCLE ( 'NONE', #146, 3.500000000000000000 ) ;
#255 = CARTESIAN_POINT ( 'NONE',  ( 0.000000000000000000, 0.000000000000000000, 5.000000000000000000 ) ) ;
ENDSEC;
END-ISO-10303-21;
