ISO-10303-21;
HEADER;
FILE_DESCRIPTION (( 'STEP AP203' ),
    '1' );
FILE_NAME ('f72b.STEP',
    '2022-07-07T09:54:54',
    ( '' ),
    ( '' ),
    'SwSTEP 2.0',
    'SolidWorks 2019',
    '' );
FILE_SCHEMA (( 'CONFIG_CONTROL_DESIGN' ));
ENDSEC;

DATA;
#1 = PRODUCT_RELATED_PRODUCT_CATEGORY ( 'detail', '', ( #298 ) ) ;
#2 = ORIENTED_EDGE ( 'NONE', *, *, #92, .T. ) ;
#3 = DESIGN_CONTEXT ( 'detailed design', #241, 'design' ) ;
#4 = AXIS2_PLACEMENT_3D ( 'NONE', #58, #119, #244 ) ;
#5 = ORIENTED_EDGE ( 'NONE', *, *, #260, .T. ) ;
#6 = MANIFOLD_SOLID_BREP ( 'Zaoblit1', #215 ) ;
#7 = ORIENTED_EDGE ( 'NONE', *, *, #250, .F. ) ;
#8 = DIRECTION ( 'NONE',  ( -0.000000000000000000, -0.000000000000000000, -1.000000000000000000 ) ) ;
#9 = DIRECTION ( 'NONE',  ( -1.000000000000000000, 0.000000000000000000, 0.000000000000000000 ) ) ;
#10 = PLANE ( 'NONE',  #25 ) ;
#11 = APPLICATION_CONTEXT ( 'configuration controlled 3d designs of mechanical parts and assemblies' ) ;
#12 = APPROVAL_ROLE ( '' ) ;
#13 = CYLINDRICAL_SURFACE ( 'NONE', #45, 5.000000000000000888 ) ;
#14 = AXIS2_PLACEMENT_3D ( 'NONE', #54, #264, #9 ) ;
#15 = CC_DESIGN_SECURITY_CLASSIFICATION ( #201, ( #265 ) ) ;
#16 = CARTESIAN_POINT ( 'NONE',  ( 0.000000000000000000, 0.000000000000000000, 165.0000000000000000 ) ) ;
#17 = COORDINATED_UNIVERSAL_TIME_OFFSET ( 1, 0, .AHEAD. ) ;
#18 = CARTESIAN_POINT ( 'NONE',  ( 0.000000000000000000, 0.000000000000000000, 165.0000000000000000 ) ) ;
#19 = PERSON_AND_ORGANIZATION ( #255, #243 ) ;
#20 = CARTESIAN_POINT ( 'NONE',  ( -5.000000000000000888, 0.000000000000000000, 5.200000000000009948 ) ) ;
#21 = CIRCLE ( 'NONE', #90, 5.000000000000000888 ) ;
#22 = CC_DESIGN_APPROVAL ( #178, ( #265 ) ) ;
#23 = PERSON_AND_ORGANIZATION ( #255, #243 ) ;
#24 = VERTEX_POINT ( 'NONE', #259 ) ;
#25 = AXIS2_PLACEMENT_3D ( 'NONE', #246, #123, #78 ) ;
#26 = ORIENTED_EDGE ( 'NONE', *, *, #300, .F. ) ;
#27 = ORIENTED_EDGE ( 'NONE', *, *, #95, .F. ) ;
#28 = EDGE_CURVE ( 'NONE', #132, #69, #234, .T. ) ;
#29 = LOCAL_TIME ( 11, 54, 54.00000000000000000, #275 ) ;
#30 = EDGE_LOOP ( 'NONE', ( #164, #118 ) ) ;
#31 = ORIENTED_EDGE ( 'NONE', *, *, #148, .T. ) ;
#32 = CARTESIAN_POINT ( 'NONE',  ( 5.200000000000001066, 0.000000000000000000, 5.000000000000005329 ) ) ;
#33 = PLANE ( 'NONE',  #139 ) ;
#34 = CARTESIAN_POINT ( 'NONE',  ( 0.000000000000000000, 0.000000000000000000, 5.000000000000000000 ) ) ;
#35 = DIRECTION ( 'NONE',  ( 1.000000000000000000, 0.000000000000000000, 0.000000000000000000 ) ) ;
#36 = FACE_OUTER_BOUND ( 'NONE', #235, .T. ) ;
#37 = EDGE_CURVE ( 'NONE', #116, #135, #68, .T. ) ;
#38 = CARTESIAN_POINT ( 'NONE',  ( 8.000000000000000000, 9.797174393178825657E-16, 5.000000000000000000 ) ) ;
#39 = PERSON_AND_ORGANIZATION_ROLE ( 'classification_officer' ) ;
#40 = DIRECTION ( 'NONE',  ( 0.000000000000000000, 0.000000000000000000, 1.000000000000000000 ) ) ;
#41 = CALENDAR_DATE ( 2022, 7, 7 ) ;
#42 = DIRECTION ( 'NONE',  ( 0.000000000000000000, 0.000000000000000000, 1.000000000000000000 ) ) ;
#43 = PERSON_AND_ORGANIZATION_ROLE ( 'creator' ) ;
#44 = EDGE_CURVE ( 'NONE', #69, #165, #154, .T. ) ;
#45 = AXIS2_PLACEMENT_3D ( 'NONE', #101, #172, #197 ) ;
#46 = ADVANCED_FACE ( 'NONE', ( #293 ), #167, .T. ) ;
#47 = CC_DESIGN_APPROVAL ( #153, ( #233 ) ) ;
#48 = ORIENTED_EDGE ( 'NONE', *, *, #44, .F. ) ;
#49 = ORIENTED_EDGE ( 'NONE', *, *, #37, .F. ) ;
#50 = ORIENTED_EDGE ( 'NONE', *, *, #292, .F. ) ;
#51 = AXIS2_PLACEMENT_3D ( 'NONE', #108, #64, #174 ) ;
#52 = APPROVAL_PERSON_ORGANIZATION ( #77, #178, #12 ) ;
#53 = ORIENTED_EDGE ( 'NONE', *, *, #292, .T. ) ;
#54 = CARTESIAN_POINT ( 'NONE',  ( 0.000000000000000000, 0.000000000000000000, 5.000000000000000000 ) ) ;
#55 = CARTESIAN_POINT ( 'NONE',  ( 0.000000000000000000, 0.000000000000000000, 165.0000000000000000 ) ) ;
#56 = CARTESIAN_POINT ( 'NONE',  ( -8.000000000000000000, 0.000000000000000000, 5.000000000000000000 ) ) ;
#57 = DATE_TIME_ROLE ( 'creation_date' ) ;
#58 = CARTESIAN_POINT ( 'NONE',  ( 0.000000000000000000, 0.000000000000000000, 5.000000000000000000 ) ) ;
#59 = PERSON_AND_ORGANIZATION_ROLE ( 'creator' ) ;
#60 = DIRECTION ( 'NONE',  ( -1.000000000000000000, 0.000000000000000000, 0.000000000000000000 ) ) ;
#61 = PERSON_AND_ORGANIZATION_ROLE ( 'design_supplier' ) ;
#62 = CARTESIAN_POINT ( 'NONE',  ( 8.000000000000000000, 9.797174393178825657E-16, 5.000000000000000000 ) ) ;
#63 = APPROVAL_ROLE ( '' ) ;
#64 = DIRECTION ( 'NONE',  ( 0.000000000000000000, 0.000000000000000000, 1.000000000000000000 ) ) ;
#65 = CARTESIAN_POINT ( 'NONE',  ( 0.000000000000000000, 0.000000000000000000, 5.000000000000000000 ) ) ;
#66 = CC_DESIGN_PERSON_AND_ORGANIZATION_ASSIGNMENT ( #19, #43, ( #233 ) ) ;
#67 = DIRECTION ( 'NONE',  ( 0.000000000000000000, -1.000000000000000000, 0.000000000000000000 ) ) ;
#68 = CIRCLE ( 'NONE', #71, 8.000000000000000000 ) ;
#69 = VERTEX_POINT ( 'NONE', #32 ) ;
#70 = ORIENTED_EDGE ( 'NONE', *, *, #148, .F. ) ;
#71 = AXIS2_PLACEMENT_3D ( 'NONE', #256, #269, #247 ) ;
#72 = DIRECTION ( 'NONE',  ( 0.000000000000000000, 0.000000000000000000, 1.000000000000000000 ) ) ;
#73 = DIRECTION ( 'NONE',  ( -0.000000000000000000, -0.000000000000000000, -1.000000000000000000 ) ) ;
#74 = DIRECTION ( 'NONE',  ( 0.000000000000000000, 0.000000000000000000, 1.000000000000000000 ) ) ;
#75 = AXIS2_PLACEMENT_3D ( 'NONE', #155, #42, #248 ) ;
#76 = LINE ( 'NONE', #170, #81 ) ;
#77 = PERSON_AND_ORGANIZATION ( #255, #243 ) ;
#78 = DIRECTION ( 'NONE',  ( 1.000000000000000000, 0.000000000000000000, -0.000000000000000000 ) ) ;
#79 = APPLICATION_PROTOCOL_DEFINITION ( 'international standard', 'config_control_design', 1994, #241 ) ;
#80 = PERSON_AND_ORGANIZATION ( #255, #243 ) ;
#81 = VECTOR ( 'NONE', #8, 1000.000000000000000 ) ;
#82 = FACE_OUTER_BOUND ( 'NONE', #179, .T. ) ;
#83 = PERSON_AND_ORGANIZATION_ROLE ( 'design_owner' ) ;
#84 = DIRECTION ( 'NONE',  ( -0.000000000000000000, -0.000000000000000000, -1.000000000000000000 ) ) ;
#85 = PERSON_AND_ORGANIZATION ( #255, #243 ) ;
#86 = ORIENTED_EDGE ( 'NONE', *, *, #267, .T. ) ;
#87 = EDGE_CURVE ( 'NONE', #135, #116, #100, .T. ) ;
#88 = VECTOR ( 'NONE', #73, 1000.000000000000000 ) ;
#89 = ORIENTED_EDGE ( 'NONE', *, *, #37, .T. ) ;
#90 = AXIS2_PLACEMENT_3D ( 'NONE', #18, #102, #301 ) ;
#91 =( GEOMETRIC_REPRESENTATION_CONTEXT ( 3 ) GLOBAL_UNCERTAINTY_ASSIGNED_CONTEXT ( ( #220 ) ) GLOBAL_UNIT_ASSIGNED_CONTEXT ( ( #245, #305, #297 ) ) REPRESENTATION_CONTEXT ( 'NONE', 'WORKASPACE' ) );
#92 = EDGE_CURVE ( 'NONE', #231, #24, #230, .T. ) ;
#93 = EDGE_LOOP ( 'NONE', ( #70, #7 ) ) ;
#94 = EDGE_LOOP ( 'NONE', ( #142, #228, #48, #209 ) ) ;
#95 = EDGE_CURVE ( 'NONE', #231, #252, #76, .T. ) ;
#96 = LINE ( 'NONE', #191, #88 ) ;
#97 = DIRECTION ( 'NONE',  ( 1.224646799147353207E-16, 1.000000000000000000, -0.000000000000000000 ) ) ;
#98 = DIRECTION ( 'NONE',  ( 1.000000000000000000, 0.000000000000000000, 0.000000000000000000 ) ) ;
#99 = APPROVAL_DATE_TIME ( #270, #178 ) ;
#100 = CIRCLE ( 'NONE', #4, 8.000000000000000000 ) ;
#101 = CARTESIAN_POINT ( 'NONE',  ( 0.000000000000000000, 0.000000000000000000, 165.0000000000000000 ) ) ;
#102 = DIRECTION ( 'NONE',  ( 0.000000000000000000, 0.000000000000000000, 1.000000000000000000 ) ) ;
#103 = CALENDAR_DATE ( 2022, 7, 7 ) ;
#104 = FACE_OUTER_BOUND ( 'NONE', #205, .T. ) ;
#105 = ADVANCED_FACE ( 'NONE', ( #36 ), #168, .T. ) ;
#106 = CARTESIAN_POINT ( 'NONE',  ( 0.000000000000000000, 0.000000000000000000, 0.000000000000000000 ) ) ;
#107 = AXIS2_PLACEMENT_3D ( 'NONE', #190, #74, #147 ) ;
#108 = CARTESIAN_POINT ( 'NONE',  ( 0.000000000000000000, 0.000000000000000000, 5.200000000000009948 ) ) ;
#109 = LOCAL_TIME ( 11, 54, 54.00000000000000000, #224 ) ;
#110 = DATE_AND_TIME ( #222, #146 ) ;
#111 = ORIENTED_EDGE ( 'NONE', *, *, #95, .T. ) ;
#112 = CIRCLE ( 'NONE', #193, 0.1999999999999996503 ) ;
#113 = ORIENTED_EDGE ( 'NONE', *, *, #87, .T. ) ;
#114 = ORIENTED_EDGE ( 'NONE', *, *, #204, .F. ) ;
#115 = AXIS2_PLACEMENT_3D ( 'NONE', #55, #223, #60 ) ;
#116 = VERTEX_POINT ( 'NONE', #38 ) ;
#117 = ADVANCED_FACE ( 'NONE', ( #169, #290 ), #33, .T. ) ;
#118 = ORIENTED_EDGE ( 'NONE', *, *, #204, .T. ) ;
#119 = DIRECTION ( 'NONE',  ( 0.000000000000000000, 0.000000000000000000, 1.000000000000000000 ) ) ;
#120 = CARTESIAN_POINT ( 'NONE',  ( 0.000000000000000000, 0.000000000000000000, 5.000000000000000000 ) ) ;
#121 = DIRECTION ( 'NONE',  ( 0.000000000000000000, 0.000000000000000000, 1.000000000000000000 ) ) ;
#122 = APPLICATION_PROTOCOL_DEFINITION ( 'international standard', 'config_control_design', 1994, #11 ) ;
#123 = DIRECTION ( 'NONE',  ( 0.000000000000000000, 0.000000000000000000, 1.000000000000000000 ) ) ;
#124 = DIRECTION ( 'NONE',  ( 0.000000000000000000, 0.000000000000000000, 1.000000000000000000 ) ) ;
#125 = AXIS2_PLACEMENT_3D ( 'NONE', #202, #152, #198 ) ;
#126 = LOCAL_TIME ( 11, 54, 54.00000000000000000, #249 ) ;
#127 = DIRECTION ( 'NONE',  ( -1.000000000000000000, 1.224646799147353454E-16, 0.000000000000000000 ) ) ;
#128 = CALENDAR_DATE ( 2022, 7, 7 ) ;
#129 = DIRECTION ( 'NONE',  ( -1.000000000000000000, 0.000000000000000000, 0.000000000000000000 ) ) ;
#130 = DATE_AND_TIME ( #303, #141 ) ;
#131 = CARTESIAN_POINT ( 'NONE',  ( 0.000000000000000000, 0.000000000000000000, 5.200000000000009948 ) ) ;
#132 = VERTEX_POINT ( 'NONE', #195 ) ;
#133 = CIRCLE ( 'NONE', #283, 8.000000000000000000 ) ;
#134 = EDGE_CURVE ( 'NONE', #252, #165, #112, .T. ) ;
#135 = VERTEX_POINT ( 'NONE', #56 ) ;
#136 = EDGE_LOOP ( 'NONE', ( #213, #212, #137, #27 ) ) ;
#137 = ORIENTED_EDGE ( 'NONE', *, *, #300, .T. ) ;
#138 = AXIS2_PLACEMENT_3D ( 'NONE', #34, #296, #150 ) ;
#139 = AXIS2_PLACEMENT_3D ( 'NONE', #214, #72, #151 ) ;
#140 = EDGE_CURVE ( 'NONE', #135, #257, #96, .T. ) ;
#141 = LOCAL_TIME ( 11, 54, 54.00000000000000000, #226 ) ;
#142 = ORIENTED_EDGE ( 'NONE', *, *, #260, .F. ) ;
#143 = DIRECTION ( 'NONE',  ( 1.000000000000000000, 0.000000000000000000, 0.000000000000000000 ) ) ;
#144 = CARTESIAN_POINT ( 'NONE',  ( 0.000000000000000000, 0.000000000000000000, 0.000000000000000000 ) ) ;
#145 = AXIS2_PLACEMENT_3D ( 'NONE', #131, #158, #304 ) ;
#146 = LOCAL_TIME ( 11, 54, 54.00000000000000000, #17 ) ;
#147 = DIRECTION ( 'NONE',  ( 1.000000000000000000, 0.000000000000000000, 0.000000000000000000 ) ) ;
#148 = EDGE_CURVE ( 'NONE', #257, #232, #180, .T. ) ;
#149 = PERSON_AND_ORGANIZATION ( #255, #243 ) ;
#150 = DIRECTION ( 'NONE',  ( 1.000000000000000000, 0.000000000000000000, 0.000000000000000000 ) ) ;
#151 = DIRECTION ( 'NONE',  ( 1.000000000000000000, 0.000000000000000000, -0.000000000000000000 ) ) ;
#152 = DIRECTION ( 'NONE',  ( 0.000000000000000000, 0.000000000000000000, 1.000000000000000000 ) ) ;
#153 = APPROVAL ( #200, 'NEURÈENÝ' ) ;
#154 = CIRCLE ( 'NONE', #160, 5.200000000000001066 ) ;
#155 = CARTESIAN_POINT ( 'NONE',  ( 0.000000000000000000, 0.000000000000000000, 5.200000000000009948 ) ) ;
#156 = DATE_AND_TIME ( #103, #109 ) ;
#157 = FACE_OUTER_BOUND ( 'NONE', #94, .T. ) ;
#158 = DIRECTION ( 'NONE',  ( 0.000000000000000000, 0.000000000000000000, 1.000000000000000000 ) ) ;
#159 = EDGE_LOOP ( 'NONE', ( #113, #89 ) ) ;
#160 = AXIS2_PLACEMENT_3D ( 'NONE', #120, #239, #143 ) ;
#161 = EDGE_CURVE ( 'NONE', #24, #132, #192, .T. ) ;
#162 = CIRCLE ( 'NONE', #145, 5.000000000000000888 ) ;
#163 = DIRECTION ( 'NONE',  ( 0.000000000000000000, 0.000000000000000000, -1.000000000000000000 ) ) ;
#164 = ORIENTED_EDGE ( 'NONE', *, *, #44, .T. ) ;
#165 = VERTEX_POINT ( 'NONE', #261 ) ;
#166 = ORIENTED_EDGE ( 'NONE', *, *, #161, .F. ) ;
#167 = CYLINDRICAL_SURFACE ( 'NONE', #115, 5.000000000000000888 ) ;
#168 = PLANE ( 'NONE',  #280 ) ;
#169 = FACE_BOUND ( 'NONE', #30, .T. ) ;
#170 = CARTESIAN_POINT ( 'NONE',  ( -5.000000000000000888, 0.000000000000000000, 165.0000000000000000 ) ) ;
#171 = PERSON_AND_ORGANIZATION ( #255, #243 ) ;
#172 = DIRECTION ( 'NONE',  ( -0.000000000000000000, -0.000000000000000000, -1.000000000000000000 ) ) ;
#173 = APPROVAL_STATUS ( 'not_yet_approved' ) ;
#174 = DIRECTION ( 'NONE',  ( 1.000000000000000000, 0.000000000000000000, 0.000000000000000000 ) ) ;
#175 = CYLINDRICAL_SURFACE ( 'NONE', #184, 8.000000000000000000 ) ;
#176 = MECHANICAL_CONTEXT ( 'NONE', #11, 'mechanical' ) ;
#177 = CARTESIAN_POINT ( 'NONE',  ( -5.000000000000000888, 0.000000000000000000, 165.0000000000000000 ) ) ;
#178 = APPROVAL ( #173, 'NEURÈENÝ' ) ;
#179 = EDGE_LOOP ( 'NONE', ( #50, #307, #187, #31 ) ) ;
#180 = CIRCLE ( 'NONE', #253, 8.000000000000000000 ) ;
#181 = SHAPE_DEFINITION_REPRESENTATION ( #207, #196 ) ;
#182 = ADVANCED_FACE ( 'NONE', ( #189 ), #242, .T. ) ;
#183 = DATE_AND_TIME ( #41, #126 ) ;
#184 = AXIS2_PLACEMENT_3D ( 'NONE', #65, #84, #129 ) ;
#185 = ORIENTED_EDGE ( 'NONE', *, *, #134, .F. ) ;
#186 = CC_DESIGN_PERSON_AND_ORGANIZATION_ASSIGNMENT ( #218, #59, ( #265 ) ) ;
#187 = ORIENTED_EDGE ( 'NONE', *, *, #140, .T. ) ;
#188 = ORIENTED_EDGE ( 'NONE', *, *, #28, .T. ) ;
#189 = FACE_OUTER_BOUND ( 'NONE', #277, .T. ) ;
#190 = CARTESIAN_POINT ( 'NONE',  ( 0.000000000000000000, 0.000000000000000000, 165.0000000000000000 ) ) ;
#191 = CARTESIAN_POINT ( 'NONE',  ( -8.000000000000000000, 0.000000000000000000, 5.000000000000000000 ) ) ;
#192 = LINE ( 'NONE', #216, #272 ) ;
#193 = AXIS2_PLACEMENT_3D ( 'NONE', #289, #97, #127 ) ;
#194 = CC_DESIGN_APPROVAL ( #262, ( #201 ) ) ;
#195 = CARTESIAN_POINT ( 'NONE',  ( 5.000000000000000888, 6.123233995736767268E-16, 5.200000000000009948 ) ) ;
#196 = ADVANCED_BREP_SHAPE_REPRESENTATION ( 'f72b', ( #6, #236 ), #91 ) ;
#197 = DIRECTION ( 'NONE',  ( -1.000000000000000000, 0.000000000000000000, 0.000000000000000000 ) ) ;
#198 = DIRECTION ( 'NONE',  ( 1.000000000000000000, 0.000000000000000000, 0.000000000000000000 ) ) ;
#199 = CARTESIAN_POINT ( 'NONE',  ( -8.000000000000000000, 0.000000000000000000, 0.000000000000000000 ) ) ;
#200 = APPROVAL_STATUS ( 'not_yet_approved' ) ;
#201 = SECURITY_CLASSIFICATION ( '', '', #203 ) ;
#202 = CARTESIAN_POINT ( 'NONE',  ( 0.000000000000000000, 0.000000000000000000, 5.200000000000009948 ) ) ;
#203 = SECURITY_CLASSIFICATION_LEVEL ( 'unclassified' ) ;
#204 = EDGE_CURVE ( 'NONE', #165, #69, #221, .T. ) ;
#205 = EDGE_LOOP ( 'NONE', ( #185, #26, #188, #114 ) ) ;
#206 = CC_DESIGN_PERSON_AND_ORGANIZATION_ASSIGNMENT ( #80, #83, ( #298 ) ) ;
#207 = PRODUCT_DEFINITION_SHAPE ( 'NONE', 'NONE',  #233 ) ;
#208 = CIRCLE ( 'NONE', #75, 5.000000000000000888 ) ;
#209 = ORIENTED_EDGE ( 'NONE', *, *, #28, .F. ) ;
#210 = APPROVAL_PERSON_ORGANIZATION ( #171, #262, #63 ) ;
#211 = ADVANCED_FACE ( 'NONE', ( #217 ), #10, .F. ) ;
#212 = ORIENTED_EDGE ( 'NONE', *, *, #161, .T. ) ;
#213 = ORIENTED_EDGE ( 'NONE', *, *, #267, .F. ) ;
#214 = CARTESIAN_POINT ( 'NONE',  ( 0.000000000000000000, 0.000000000000000000, 5.000000000000000000 ) ) ;
#215 = CLOSED_SHELL ( 'NONE', ( #306, #46, #182, #287, #117, #211, #229, #105, #254 ) ) ;
#216 = CARTESIAN_POINT ( 'NONE',  ( 5.000000000000000888, 6.123233995736767268E-16, 165.0000000000000000 ) ) ;
#217 = FACE_OUTER_BOUND ( 'NONE', #93, .T. ) ;
#218 = PERSON_AND_ORGANIZATION ( #255, #243 ) ;
#219 = FACE_OUTER_BOUND ( 'NONE', #237, .T. ) ;
#220 = UNCERTAINTY_MEASURE_WITH_UNIT (LENGTH_MEASURE( 1.000000000000000082E-05 ), #245, 'distance_accuracy_value', 'NONE');
#221 = CIRCLE ( 'NONE', #138, 5.200000000000001066 ) ;
#222 = CALENDAR_DATE ( 2022, 7, 7 ) ;
#223 = DIRECTION ( 'NONE',  ( -0.000000000000000000, -0.000000000000000000, -1.000000000000000000 ) ) ;
#224 = COORDINATED_UNIVERSAL_TIME_OFFSET ( 1, 0, .AHEAD. ) ;
#225 = DIRECTION ( 'NONE',  ( 1.000000000000000000, 0.000000000000000000, 0.000000000000000000 ) ) ;
#226 = COORDINATED_UNIVERSAL_TIME_OFFSET ( 1, 0, .AHEAD. ) ;
#227 = VECTOR ( 'NONE', #274, 1000.000000000000000 ) ;
#228 = ORIENTED_EDGE ( 'NONE', *, *, #134, .T. ) ;
#229 = ADVANCED_FACE ( 'NONE', ( #219 ), #13, .T. ) ;
#230 = CIRCLE ( 'NONE', #107, 5.000000000000000888 ) ;
#231 = VERTEX_POINT ( 'NONE', #177 ) ;
#232 = VERTEX_POINT ( 'NONE', #299 ) ;
#233 = PRODUCT_DEFINITION ( 'NEZNÁMÝ', '', #265, #3 ) ;
#234 = CIRCLE ( 'NONE', #288, 0.1999999999999996503 ) ;
#235 = EDGE_LOOP ( 'NONE', ( #2, #86 ) ) ;
#236 = AXIS2_PLACEMENT_3D ( 'NONE', #106, #124, #35 ) ;
#237 = EDGE_LOOP ( 'NONE', ( #166, #285, #111, #5 ) ) ;
#238 = CC_DESIGN_DATE_AND_TIME_ASSIGNMENT ( #110, #57, ( #233 ) ) ;
#239 = DIRECTION ( 'NONE',  ( -0.000000000000000000, -0.000000000000000000, -1.000000000000000000 ) ) ;
#240 = CC_DESIGN_PERSON_AND_ORGANIZATION_ASSIGNMENT ( #23, #61, ( #265 ) ) ;
#241 = APPLICATION_CONTEXT ( 'configuration controlled 3d designs of mechanical parts and assemblies' ) ;
#242 = CYLINDRICAL_SURFACE ( 'NONE', #14, 8.000000000000000000 ) ;
#243 = ORGANIZATION ( 'NEURÈENÝ', 'NEURÈENÝ', '' ) ;
#244 = DIRECTION ( 'NONE',  ( 1.000000000000000000, 0.000000000000000000, 0.000000000000000000 ) ) ;
#245 =( LENGTH_UNIT ( ) NAMED_UNIT ( * ) SI_UNIT ( .MILLI., .METRE. ) );
#246 = CARTESIAN_POINT ( 'NONE',  ( 0.000000000000000000, 0.000000000000000000, 0.000000000000000000 ) ) ;
#247 = DIRECTION ( 'NONE',  ( 1.000000000000000000, 0.000000000000000000, 0.000000000000000000 ) ) ;
#248 = DIRECTION ( 'NONE',  ( 1.000000000000000000, 0.000000000000000000, 0.000000000000000000 ) ) ;
#249 = COORDINATED_UNIVERSAL_TIME_OFFSET ( 1, 0, .AHEAD. ) ;
#250 = EDGE_CURVE ( 'NONE', #232, #257, #133, .T. ) ;
#251 = APPROVAL_DATE_TIME ( #130, #153 ) ;
#252 = VERTEX_POINT ( 'NONE', #20 ) ;
#253 = AXIS2_PLACEMENT_3D ( 'NONE', #144, #121, #98 ) ;
#254 = ADVANCED_FACE ( 'NONE', ( #104 ), #302, .F. ) ;
#255 = PERSON ( 'NEURÈENÝ', 'NEURÈENÝ', 'NEURÈENÝ', ('NEURÈENÝ'), ('NEURÈENÝ'), ('NEURÈENÝ') ) ;
#256 = CARTESIAN_POINT ( 'NONE',  ( 0.000000000000000000, 0.000000000000000000, 5.000000000000000000 ) ) ;
#257 = VERTEX_POINT ( 'NONE', #199 ) ;
#258 = CC_DESIGN_DATE_AND_TIME_ASSIGNMENT ( #156, #295, ( #201 ) ) ;
#259 = CARTESIAN_POINT ( 'NONE',  ( 5.000000000000000888, 6.123233995736767268E-16, 165.0000000000000000 ) ) ;
#260 = EDGE_CURVE ( 'NONE', #252, #132, #162, .T. ) ;
#261 = CARTESIAN_POINT ( 'NONE',  ( -5.200000000000001066, 6.368163355566237368E-16, 5.000000000000005329 ) ) ;
#262 = APPROVAL ( #273, 'NEURÈENÝ' ) ;
#263 = DIRECTION ( 'NONE',  ( 0.000000000000000000, 0.000000000000000000, 1.000000000000000000 ) ) ;
#264 = DIRECTION ( 'NONE',  ( -0.000000000000000000, -0.000000000000000000, -1.000000000000000000 ) ) ;
#265 = PRODUCT_DEFINITION_FORMATION_WITH_SPECIFIED_SOURCE ( 'LIBOVOLNÝ', '', #298, .NOT_KNOWN. ) ;
#266 = DIRECTION ( 'NONE',  ( 1.000000000000000000, 0.000000000000000000, -0.000000000000000000 ) ) ;
#267 = EDGE_CURVE ( 'NONE', #24, #231, #21, .T. ) ;
#268 = APPROVAL_ROLE ( '' ) ;
#269 = DIRECTION ( 'NONE',  ( 0.000000000000000000, 0.000000000000000000, 1.000000000000000000 ) ) ;
#270 = DATE_AND_TIME ( #128, #29 ) ;
#271 = LINE ( 'NONE', #62, #227 ) ;
#272 = VECTOR ( 'NONE', #291, 1000.000000000000000 ) ;
#273 = APPROVAL_STATUS ( 'not_yet_approved' ) ;
#274 = DIRECTION ( 'NONE',  ( -0.000000000000000000, -0.000000000000000000, -1.000000000000000000 ) ) ;
#275 = COORDINATED_UNIVERSAL_TIME_OFFSET ( 1, 0, .AHEAD. ) ;
#276 = CARTESIAN_POINT ( 'NONE',  ( 0.000000000000000000, 0.000000000000000000, 0.000000000000000000 ) ) ;
#277 = EDGE_LOOP ( 'NONE', ( #49, #53, #284, #286 ) ) ;
#278 = APPROVAL_DATE_TIME ( #183, #262 ) ;
#279 = CARTESIAN_POINT ( 'NONE',  ( 5.200000000000001066, 0.000000000000000000, 5.200000000000009948 ) ) ;
#280 = AXIS2_PLACEMENT_3D ( 'NONE', #16, #263, #266 ) ;
#281 = APPROVAL_PERSON_ORGANIZATION ( #149, #153, #268 ) ;
#282 = CC_DESIGN_PERSON_AND_ORGANIZATION_ASSIGNMENT ( #85, #39, ( #201 ) ) ;
#283 = AXIS2_PLACEMENT_3D ( 'NONE', #276, #40, #225 ) ;
#284 = ORIENTED_EDGE ( 'NONE', *, *, #250, .T. ) ;
#285 = ORIENTED_EDGE ( 'NONE', *, *, #92, .F. ) ;
#286 = ORIENTED_EDGE ( 'NONE', *, *, #140, .F. ) ;
#287 = ADVANCED_FACE ( 'NONE', ( #82 ), #175, .T. ) ;
#288 = AXIS2_PLACEMENT_3D ( 'NONE', #279, #67, #163 ) ;
#289 = CARTESIAN_POINT ( 'NONE',  ( -5.200000000000001066, 6.368163355566237368E-16, 5.200000000000009948 ) ) ;
#290 = FACE_OUTER_BOUND ( 'NONE', #159, .T. ) ;
#291 = DIRECTION ( 'NONE',  ( -0.000000000000000000, -0.000000000000000000, -1.000000000000000000 ) ) ;
#292 = EDGE_CURVE ( 'NONE', #116, #232, #271, .T. ) ;
#293 = FACE_OUTER_BOUND ( 'NONE', #136, .T. ) ;
#294 = TOROIDAL_SURFACE ( 'NONE', #125, 5.200000000000001066, 0.2000000000000000111 ) ;
#295 = DATE_TIME_ROLE ( 'classification_date' ) ;
#296 = DIRECTION ( 'NONE',  ( -0.000000000000000000, -0.000000000000000000, -1.000000000000000000 ) ) ;
#297 =( NAMED_UNIT ( * ) SI_UNIT ( $, .STERADIAN. ) SOLID_ANGLE_UNIT ( ) );
#298 = PRODUCT ( 'f72b', 'f72b', '', ( #176 ) ) ;
#299 = CARTESIAN_POINT ( 'NONE',  ( 8.000000000000000000, 9.797174393178825657E-16, 0.000000000000000000 ) ) ;
#300 = EDGE_CURVE ( 'NONE', #132, #252, #208, .T. ) ;
#301 = DIRECTION ( 'NONE',  ( 1.000000000000000000, 0.000000000000000000, 0.000000000000000000 ) ) ;
#302 = TOROIDAL_SURFACE ( 'NONE', #51, 5.200000000000001066, 0.2000000000000000111 ) ;
#303 = CALENDAR_DATE ( 2022, 7, 7 ) ;
#304 = DIRECTION ( 'NONE',  ( 1.000000000000000000, 0.000000000000000000, 0.000000000000000000 ) ) ;
#305 =( NAMED_UNIT ( * ) PLANE_ANGLE_UNIT ( ) SI_UNIT ( $, .RADIAN. ) );
#306 = ADVANCED_FACE ( 'NONE', ( #157 ), #294, .F. ) ;
#307 = ORIENTED_EDGE ( 'NONE', *, *, #87, .F. ) ;
ENDSEC;
END-ISO-10303-21;
