ISO-10303-21;
HEADER;
FILE_DESCRIPTION (( 'STEP AP203' ),
    '1' );
FILE_NAME ('23a7.STEP',
    '2022-07-07T10:28:15',
    ( '' ),
    ( '' ),
    'SwSTEP 2.0',
    'SolidWorks 2019',
    '' );
FILE_SCHEMA (( 'CONFIG_CONTROL_DESIGN' ));
ENDSEC;

DATA;
#1 = CIRCLE ( 'NONE', #79, 0.2000000000000000944 ) ;
#2 = COORDINATED_UNIVERSAL_TIME_OFFSET ( 1, 0, .AHEAD. ) ;
#3 = EDGE_LOOP ( 'NONE', ( #40, #133, #229, #252 ) ) ;
#4 = EDGE_CURVE ( 'NONE', #88, #8, #222, .T. ) ;
#5 = ORIENTED_EDGE ( 'NONE', *, *, #111, .T. ) ;
#6 = AXIS2_PLACEMENT_3D ( 'NONE', #71, #50, #97 ) ;
#7 = EDGE_LOOP ( 'NONE', ( #182, #294, #269, #292 ) ) ;
#8 = VERTEX_POINT ( 'NONE', #63 ) ;
#9 = DIRECTION ( 'NONE',  ( -0.000000000000000000, -0.000000000000000000, -1.000000000000000000 ) ) ;
#10 = ORIENTED_EDGE ( 'NONE', *, *, #75, .T. ) ;
#11 = CYLINDRICAL_SURFACE ( 'NONE', #172, 3.500000000000000444 ) ;
#12 = CARTESIAN_POINT ( 'NONE',  ( 0.000000000000000000, 0.000000000000000000, 3.000000000000000000 ) ) ;
#13 = ORIENTED_EDGE ( 'NONE', *, *, #261, .T. ) ;
#14 = CC_DESIGN_SECURITY_CLASSIFICATION ( #70, ( #203 ) ) ;
#15 = FACE_OUTER_BOUND ( 'NONE', #180, .T. ) ;
#16 = FACE_OUTER_BOUND ( 'NONE', #3, .T. ) ;
#17 = EDGE_CURVE ( 'NONE', #247, #43, #60, .T. ) ;
#18 =( NAMED_UNIT ( * ) SI_UNIT ( $, .STERADIAN. ) SOLID_ANGLE_UNIT ( ) );
#19 = AXIS2_PLACEMENT_3D ( 'NONE', #159, #132, #42 ) ;
#20 = LOCAL_TIME ( 12, 28, 15.00000000000000000, #103 ) ;
#21 = DIRECTION ( 'NONE',  ( -0.000000000000000000, -0.000000000000000000, -1.000000000000000000 ) ) ;
#22 = ADVANCED_BREP_SHAPE_REPRESENTATION ( '23a7', ( #243, #47 ), #248 ) ;
#23 = DIRECTION ( 'NONE',  ( 0.000000000000000000, 0.000000000000000000, 1.000000000000000000 ) ) ;
#24 = CARTESIAN_POINT ( 'NONE',  ( 0.000000000000000000, 0.000000000000000000, 0.000000000000000000 ) ) ;
#25 = CIRCLE ( 'NONE', #288, 3.500000000000000444 ) ;
#26 = ORGANIZATION ( 'NEURÈENÝ', 'NEURÈENÝ', '' ) ;
#27 = PERSON_AND_ORGANIZATION_ROLE ( 'creator' ) ;
#28 = FACE_OUTER_BOUND ( 'NONE', #110, .T. ) ;
#29 = DATE_AND_TIME ( #242, #183 ) ;
#30 = CC_DESIGN_PERSON_AND_ORGANIZATION_ASSIGNMENT ( #31, #27, ( #203 ) ) ;
#31 = PERSON_AND_ORGANIZATION ( #77, #26 ) ;
#32 = AXIS2_PLACEMENT_3D ( 'NONE', #263, #23, #192 ) ;
#33 = PERSON_AND_ORGANIZATION ( #77, #26 ) ;
#34 = EDGE_CURVE ( 'NONE', #128, #62, #147, .T. ) ;
#35 = CALENDAR_DATE ( 2022, 7, 7 ) ;
#36 = APPLICATION_CONTEXT ( 'configuration controlled 3d designs of mechanical parts and assemblies' ) ;
#37 = ORIENTED_EDGE ( 'NONE', *, *, #254, .F. ) ;
#38 = ORIENTED_EDGE ( 'NONE', *, *, #85, .F. ) ;
#39 = CARTESIAN_POINT ( 'NONE',  ( 3.500000000000000444, 4.286263797015737088E-16, 3.000000000000000000 ) ) ;
#40 = ORIENTED_EDGE ( 'NONE', *, *, #233, .F. ) ;
#41 = DIRECTION ( 'NONE',  ( 1.000000000000000000, 0.000000000000000000, -0.000000000000000000 ) ) ;
#42 = DIRECTION ( 'NONE',  ( 1.000000000000000000, 0.000000000000000000, 0.000000000000000000 ) ) ;
#43 = VERTEX_POINT ( 'NONE', #39 ) ;
#44 = CARTESIAN_POINT ( 'NONE',  ( 1.750000000000000000, 2.143131898507868297E-16, 3.200000000000008171 ) ) ;
#45 = CARTESIAN_POINT ( 'NONE',  ( -3.500000000000000444, 0.000000000000000000, 3.000000000000000000 ) ) ;
#46 = AXIS2_PLACEMENT_3D ( 'NONE', #12, #106, #281 ) ;
#47 = AXIS2_PLACEMENT_3D ( 'NONE', #137, #234, #166 ) ;
#48 = EDGE_CURVE ( 'NONE', #184, #225, #123, .T. ) ;
#49 = APPLICATION_PROTOCOL_DEFINITION ( 'international standard', 'config_control_design', 1994, #36 ) ;
#50 = DIRECTION ( 'NONE',  ( -0.000000000000000000, -0.000000000000000000, -1.000000000000000000 ) ) ;
#51 = DIRECTION ( 'NONE',  ( 1.000000000000000000, 0.000000000000000000, 0.000000000000000000 ) ) ;
#52 = LINE ( 'NONE', #215, #96 ) ;
#53 = CARTESIAN_POINT ( 'NONE',  ( 0.000000000000000000, 0.000000000000000000, 3.200000000000008171 ) ) ;
#54 = APPROVAL_STATUS ( 'not_yet_approved' ) ;
#55 = CARTESIAN_POINT ( 'NONE',  ( -1.750000000000000000, 0.000000000000000000, 3.200000000000008171 ) ) ;
#56 = PERSON_AND_ORGANIZATION ( #77, #26 ) ;
#57 = CC_DESIGN_PERSON_AND_ORGANIZATION_ASSIGNMENT ( #124, #58, ( #70 ) ) ;
#58 = PERSON_AND_ORGANIZATION_ROLE ( 'classification_officer' ) ;
#59 = ADVANCED_FACE ( 'NONE', ( #293, #231 ), #251, .T. ) ;
#60 = CIRCLE ( 'NONE', #19, 3.500000000000000444 ) ;
#61 = COORDINATED_UNIVERSAL_TIME_OFFSET ( 1, 0, .AHEAD. ) ;
#62 = VERTEX_POINT ( 'NONE', #171 ) ;
#63 = CARTESIAN_POINT ( 'NONE',  ( 3.500000000000000444, 4.286263797015737088E-16, 0.000000000000000000 ) ) ;
#64 = ORIENTED_EDGE ( 'NONE', *, *, #173, .T. ) ;
#65 = DIRECTION ( 'NONE',  ( 1.000000000000000000, 0.000000000000000000, 0.000000000000000000 ) ) ;
#66 = APPLICATION_CONTEXT ( 'configuration controlled 3d designs of mechanical parts and assemblies' ) ;
#67 = DIRECTION ( 'NONE',  ( 1.000000000000000000, 0.000000000000000000, 0.000000000000000000 ) ) ;
#68 = DIRECTION ( 'NONE',  ( -0.000000000000000000, -0.000000000000000000, -1.000000000000000000 ) ) ;
#69 = CARTESIAN_POINT ( 'NONE',  ( 0.000000000000000000, 0.000000000000000000, 163.0000000000000000 ) ) ;
#70 = SECURITY_CLASSIFICATION ( '', '', #125 ) ;
#71 = CARTESIAN_POINT ( 'NONE',  ( 0.000000000000000000, 0.000000000000000000, 3.000000000000000000 ) ) ;
#72 = DIRECTION ( 'NONE',  ( 1.000000000000000000, 0.000000000000000000, 0.000000000000000000 ) ) ;
#73 = CARTESIAN_POINT ( 'NONE',  ( -1.750000000000000000, 0.000000000000000000, 163.0000000000000000 ) ) ;
#74 = PLANE ( 'NONE',  #280 ) ;
#75 = EDGE_CURVE ( 'NONE', #8, #88, #303, .T. ) ;
#76 = DATE_AND_TIME ( #306, #190 ) ;
#77 = PERSON ( 'NEURÈENÝ', 'NEURÈENÝ', 'NEURÈENÝ', ('NEURÈENÝ'), ('NEURÈENÝ'), ('NEURÈENÝ') ) ;
#78 = COORDINATED_UNIVERSAL_TIME_OFFSET ( 1, 0, .AHEAD. ) ;
#79 = AXIS2_PLACEMENT_3D ( 'NONE', #115, #142, #121 ) ;
#80 = CC_DESIGN_APPROVAL ( #220, ( #203 ) ) ;
#81 = APPROVAL_DATE_TIME ( #76, #118 ) ;
#82 = ORIENTED_EDGE ( 'NONE', *, *, #48, .F. ) ;
#83 = ORIENTED_EDGE ( 'NONE', *, *, #139, .T. ) ;
#84 = ORIENTED_EDGE ( 'NONE', *, *, #233, .T. ) ;
#85 = EDGE_CURVE ( 'NONE', #272, #107, #262, .T. ) ;
#86 = CARTESIAN_POINT ( 'NONE',  ( 0.000000000000000000, 0.000000000000000000, 163.0000000000000000 ) ) ;
#87 = AXIS2_PLACEMENT_3D ( 'NONE', #129, #9, #207 ) ;
#88 = VERTEX_POINT ( 'NONE', #217 ) ;
#89 = DIRECTION ( 'NONE',  ( 1.000000000000000000, 0.000000000000000000, 0.000000000000000000 ) ) ;
#90 = PRODUCT_DEFINITION_SHAPE ( 'NONE', 'NONE',  #105 ) ;
#91 = APPLICATION_PROTOCOL_DEFINITION ( 'international standard', 'config_control_design', 1994, #66 ) ;
#92 = EDGE_CURVE ( 'NONE', #247, #88, #196, .T. ) ;
#93 = DESIGN_CONTEXT ( 'detailed design', #36, 'design' ) ;
#94 = CARTESIAN_POINT ( 'NONE',  ( 0.000000000000000000, 0.000000000000000000, 163.0000000000000000 ) ) ;
#95 = LINE ( 'NONE', #277, #304 ) ;
#96 = VECTOR ( 'NONE', #100, 1000.000000000000000 ) ;
#97 = DIRECTION ( 'NONE',  ( -1.000000000000000000, 0.000000000000000000, 0.000000000000000000 ) ) ;
#98 = DIRECTION ( 'NONE',  ( -0.000000000000000000, -0.000000000000000000, -1.000000000000000000 ) ) ;
#99 = DIRECTION ( 'NONE',  ( 1.000000000000000000, 0.000000000000000000, 0.000000000000000000 ) ) ;
#100 = DIRECTION ( 'NONE',  ( -0.000000000000000000, -0.000000000000000000, -1.000000000000000000 ) ) ;
#101 = APPROVAL_ROLE ( '' ) ;
#102 = DATE_TIME_ROLE ( 'creation_date' ) ;
#103 = COORDINATED_UNIVERSAL_TIME_OFFSET ( 1, 0, .AHEAD. ) ;
#104 = EDGE_LOOP ( 'NONE', ( #246, #38, #5, #156 ) ) ;
#105 = PRODUCT_DEFINITION ( 'NEZNÁMÝ', '', #203, #93 ) ;
#106 = DIRECTION ( 'NONE',  ( 0.000000000000000000, 0.000000000000000000, 1.000000000000000000 ) ) ;
#107 = VERTEX_POINT ( 'NONE', #55 ) ;
#108 = CARTESIAN_POINT ( 'NONE',  ( 0.000000000000000000, 0.000000000000000000, 0.000000000000000000 ) ) ;
#109 = EDGE_LOOP ( 'NONE', ( #205, #228 ) ) ;
#110 = EDGE_LOOP ( 'NONE', ( #276, #208 ) ) ;
#111 = EDGE_CURVE ( 'NONE', #272, #184, #1, .T. ) ;
#112 = FACE_OUTER_BOUND ( 'NONE', #7, .T. ) ;
#113 = DIRECTION ( 'NONE',  ( 1.000000000000000000, 0.000000000000000000, 0.000000000000000000 ) ) ;
#114 = ADVANCED_FACE ( 'NONE', ( #28 ), #74, .F. ) ;
#115 = CARTESIAN_POINT ( 'NONE',  ( 1.950000000000000178, 0.000000000000000000, 3.200000000000008171 ) ) ;
#116 = DIRECTION ( 'NONE',  ( 0.000000000000000000, 0.000000000000000000, 1.000000000000000000 ) ) ;
#117 = CARTESIAN_POINT ( 'NONE',  ( 0.000000000000000000, 0.000000000000000000, 0.000000000000000000 ) ) ;
#118 = APPROVAL ( #54, 'NEURÈENÝ' ) ;
#119 = AXIS2_PLACEMENT_3D ( 'NONE', #86, #181, #271 ) ;
#120 = CIRCLE ( 'NONE', #268, 1.950000000000000178 ) ;
#121 = DIRECTION ( 'NONE',  ( 0.000000000000000000, 0.000000000000000000, -1.000000000000000000 ) ) ;
#122 = VECTOR ( 'NONE', #21, 1000.000000000000000 ) ;
#123 = CIRCLE ( 'NONE', #87, 1.950000000000000178 ) ;
#124 = PERSON_AND_ORGANIZATION ( #77, #26 ) ;
#125 = SECURITY_CLASSIFICATION_LEVEL ( 'unclassified' ) ;
#126 = ADVANCED_FACE ( 'NONE', ( #146 ), #295, .F. ) ;
#127 = LOCAL_TIME ( 12, 28, 15.00000000000000000, #78 ) ;
#128 = VERTEX_POINT ( 'NONE', #73 ) ;
#129 = CARTESIAN_POINT ( 'NONE',  ( 0.000000000000000000, 0.000000000000000000, 3.000000000000000000 ) ) ;
#130 = ORIENTED_EDGE ( 'NONE', *, *, #111, .F. ) ;
#131 = CARTESIAN_POINT ( 'NONE',  ( 0.000000000000000000, 0.000000000000000000, 3.000000000000000000 ) ) ;
#132 = DIRECTION ( 'NONE',  ( 0.000000000000000000, 0.000000000000000000, 1.000000000000000000 ) ) ;
#133 = ORIENTED_EDGE ( 'NONE', *, *, #34, .F. ) ;
#134 = CARTESIAN_POINT ( 'NONE',  ( 0.000000000000000000, 0.000000000000000000, 3.000000000000000000 ) ) ;
#135 = CLOSED_SHELL ( 'NONE', ( #126, #179, #289, #278, #59, #114, #265, #197, #143 ) ) ;
#136 = CC_DESIGN_APPROVAL ( #118, ( #105 ) ) ;
#137 = CARTESIAN_POINT ( 'NONE',  ( 0.000000000000000000, 0.000000000000000000, 0.000000000000000000 ) ) ;
#138 = PERSON_AND_ORGANIZATION ( #77, #26 ) ;
#139 = EDGE_CURVE ( 'NONE', #107, #225, #170, .T. ) ;
#140 = FACE_OUTER_BOUND ( 'NONE', #157, .T. ) ;
#141 = AXIS2_PLACEMENT_3D ( 'NONE', #300, #98, #301 ) ;
#142 = DIRECTION ( 'NONE',  ( 0.000000000000000000, -1.000000000000000000, 0.000000000000000000 ) ) ;
#143 = ADVANCED_FACE ( 'NONE', ( #237 ), #164, .F. ) ;
#144 = CARTESIAN_POINT ( 'NONE',  ( -1.950000000000000178, 2.388061258337339136E-16, 3.200000000000008171 ) ) ;
#145 = COORDINATED_UNIVERSAL_TIME_OFFSET ( 1, 0, .AHEAD. ) ;
#146 = FACE_OUTER_BOUND ( 'NONE', #206, .T. ) ;
#147 = CIRCLE ( 'NONE', #119, 1.750000000000000000 ) ;
#148 = CC_DESIGN_APPROVAL ( #189, ( #70 ) ) ;
#149 = DATE_AND_TIME ( #245, #195 ) ;
#150 = APPROVAL_ROLE ( '' ) ;
#151 = DATE_TIME_ROLE ( 'classification_date' ) ;
#152 = AXIS2_PLACEMENT_3D ( 'NONE', #108, #275, #67 ) ;
#153 = APPROVAL_PERSON_ORGANIZATION ( #286, #189, #101 ) ;
#154 = APPROVAL_DATE_TIME ( #223, #220 ) ;
#155 = CC_DESIGN_PERSON_AND_ORGANIZATION_ASSIGNMENT ( #56, #285, ( #105 ) ) ;
#156 = ORIENTED_EDGE ( 'NONE', *, *, #227, .F. ) ;
#157 = EDGE_LOOP ( 'NONE', ( #160, #84, #158, #226 ) ) ;
#158 = ORIENTED_EDGE ( 'NONE', *, *, #85, .T. ) ;
#159 = CARTESIAN_POINT ( 'NONE',  ( 0.000000000000000000, 0.000000000000000000, 3.000000000000000000 ) ) ;
#160 = ORIENTED_EDGE ( 'NONE', *, *, #302, .F. ) ;
#161 = DIRECTION ( 'NONE',  ( 0.000000000000000000, 0.000000000000000000, 1.000000000000000000 ) ) ;
#162 = PRODUCT_RELATED_PRODUCT_CATEGORY ( 'detail', '', ( #187 ) ) ;
#163 = DIRECTION ( 'NONE',  ( -0.000000000000000000, -0.000000000000000000, -1.000000000000000000 ) ) ;
#164 = TOROIDAL_SURFACE ( 'NONE', #32, 1.950000000000000178, 0.2000000000000000111 ) ;
#165 = AXIS2_PLACEMENT_3D ( 'NONE', #69, #232, #65 ) ;
#166 = DIRECTION ( 'NONE',  ( 1.000000000000000000, 0.000000000000000000, 0.000000000000000000 ) ) ;
#167 = CC_DESIGN_PERSON_AND_ORGANIZATION_ASSIGNMENT ( #33, #176, ( #203 ) ) ;
#168 = LINE ( 'NONE', #299, #241 ) ;
#169 = CARTESIAN_POINT ( 'NONE',  ( 0.000000000000000000, 0.000000000000000000, 3.200000000000008171 ) ) ;
#170 = CIRCLE ( 'NONE', #287, 0.1999999999999998723 ) ;
#171 = CARTESIAN_POINT ( 'NONE',  ( 1.750000000000000000, 2.143131898507868297E-16, 163.0000000000000000 ) ) ;
#172 = AXIS2_PLACEMENT_3D ( 'NONE', #134, #188, #253 ) ;
#173 = EDGE_CURVE ( 'NONE', #43, #247, #25, .T. ) ;
#174 = DIRECTION ( 'NONE',  ( 1.000000000000000000, 0.000000000000000000, -0.000000000000000000 ) ) ;
#175 = DIRECTION ( 'NONE',  ( -1.000000000000000000, 1.224646799147354686E-16, 0.000000000000000000 ) ) ;
#176 = PERSON_AND_ORGANIZATION_ROLE ( 'design_supplier' ) ;
#177 = EDGE_CURVE ( 'NONE', #128, #107, #52, .T. ) ;
#178 = APPROVAL_ROLE ( '' ) ;
#179 = ADVANCED_FACE ( 'NONE', ( #140 ), #214, .T. ) ;
#180 = EDGE_LOOP ( 'NONE', ( #204, #13, #10, #224 ) ) ;
#181 = DIRECTION ( 'NONE',  ( 0.000000000000000000, 0.000000000000000000, 1.000000000000000000 ) ) ;
#182 = ORIENTED_EDGE ( 'NONE', *, *, #261, .F. ) ;
#183 = LOCAL_TIME ( 12, 28, 15.00000000000000000, #2 ) ;
#184 = VERTEX_POINT ( 'NONE', #264 ) ;
#185 = ORIENTED_EDGE ( 'NONE', *, *, #227, .T. ) ;
#186 = DIRECTION ( 'NONE',  ( -0.000000000000000000, -0.000000000000000000, -1.000000000000000000 ) ) ;
#187 = PRODUCT ( '23a7', '23a7', '', ( #279 ) ) ;
#188 = DIRECTION ( 'NONE',  ( -0.000000000000000000, -0.000000000000000000, -1.000000000000000000 ) ) ;
#189 = APPROVAL ( #199, 'NEURÈENÝ' ) ;
#190 = LOCAL_TIME ( 12, 28, 15.00000000000000000, #145 ) ;
#191 = CARTESIAN_POINT ( 'NONE',  ( 0.000000000000000000, 0.000000000000000000, 3.200000000000008171 ) ) ;
#192 = DIRECTION ( 'NONE',  ( 1.000000000000000000, 0.000000000000000000, 0.000000000000000000 ) ) ;
#193 = DIRECTION ( 'NONE',  ( 0.000000000000000000, 0.000000000000000000, 1.000000000000000000 ) ) ;
#194 = DIRECTION ( 'NONE',  ( 0.000000000000000000, 0.000000000000000000, 1.000000000000000000 ) ) ;
#195 = LOCAL_TIME ( 12, 28, 15.00000000000000000, #61 ) ;
#196 = LINE ( 'NONE', #260, #122 ) ;
#197 = ADVANCED_FACE ( 'NONE', ( #238 ), #284, .T. ) ;
#198 = APPROVAL_DATE_TIME ( #244, #189 ) ;
#199 = APPROVAL_STATUS ( 'not_yet_approved' ) ;
#200 = CC_DESIGN_PERSON_AND_ORGANIZATION_ASSIGNMENT ( #297, #258, ( #187 ) ) ;
#201 = CALENDAR_DATE ( 2022, 7, 7 ) ;
#202 = EDGE_LOOP ( 'NONE', ( #249, #185 ) ) ;
#203 = PRODUCT_DEFINITION_FORMATION_WITH_SPECIFIED_SOURCE ( 'LIBOVOLNÝ', '', #187, .NOT_KNOWN. ) ;
#204 = ORIENTED_EDGE ( 'NONE', *, *, #173, .F. ) ;
#205 = ORIENTED_EDGE ( 'NONE', *, *, #34, .T. ) ;
#206 = EDGE_LOOP ( 'NONE', ( #37, #83, #82, #130 ) ) ;
#207 = DIRECTION ( 'NONE',  ( 1.000000000000000000, 0.000000000000000000, 0.000000000000000000 ) ) ;
#208 = ORIENTED_EDGE ( 'NONE', *, *, #75, .F. ) ;
#209 = AXIS2_PLACEMENT_3D ( 'NONE', #191, #235, #89 ) ;
#210 = CARTESIAN_POINT ( 'NONE',  ( 0.000000000000000000, 0.000000000000000000, 163.0000000000000000 ) ) ;
#211 = UNCERTAINTY_MEASURE_WITH_UNIT (LENGTH_MEASURE( 1.000000000000000082E-05 ), #296, 'distance_accuracy_value', 'NONE');
#212 = CIRCLE ( 'NONE', #209, 1.750000000000000000 ) ;
#213 = CYLINDRICAL_SURFACE ( 'NONE', #6, 3.500000000000000444 ) ;
#214 = CYLINDRICAL_SURFACE ( 'NONE', #141, 1.750000000000000000 ) ;
#215 = CARTESIAN_POINT ( 'NONE',  ( -1.750000000000000000, 0.000000000000000000, 163.0000000000000000 ) ) ;
#216 = AXIS2_PLACEMENT_3D ( 'NONE', #169, #282, #72 ) ;
#217 = CARTESIAN_POINT ( 'NONE',  ( -3.500000000000000444, 0.000000000000000000, 0.000000000000000000 ) ) ;
#218 = APPROVAL_PERSON_ORGANIZATION ( #267, #220, #178 ) ;
#219 = SHAPE_DEFINITION_REPRESENTATION ( #90, #22 ) ;
#220 = APPROVAL ( #221, 'NEURÈENÝ' ) ;
#221 = APPROVAL_STATUS ( 'not_yet_approved' ) ;
#222 = CIRCLE ( 'NONE', #152, 3.500000000000000444 ) ;
#223 = DATE_AND_TIME ( #35, #127 ) ;
#224 = ORIENTED_EDGE ( 'NONE', *, *, #92, .F. ) ;
#225 = VERTEX_POINT ( 'NONE', #259 ) ;
#226 = ORIENTED_EDGE ( 'NONE', *, *, #177, .F. ) ;
#227 = EDGE_CURVE ( 'NONE', #225, #184, #120, .T. ) ;
#228 = ORIENTED_EDGE ( 'NONE', *, *, #302, .T. ) ;
#229 = ORIENTED_EDGE ( 'NONE', *, *, #177, .T. ) ;
#230 = CYLINDRICAL_SURFACE ( 'NONE', #274, 1.750000000000000000 ) ;
#231 = FACE_OUTER_BOUND ( 'NONE', #290, .T. ) ;
#232 = DIRECTION ( 'NONE',  ( 0.000000000000000000, 0.000000000000000000, 1.000000000000000000 ) ) ;
#233 = EDGE_CURVE ( 'NONE', #62, #272, #168, .T. ) ;
#234 = DIRECTION ( 'NONE',  ( 0.000000000000000000, 0.000000000000000000, 1.000000000000000000 ) ) ;
#235 = DIRECTION ( 'NONE',  ( 0.000000000000000000, 0.000000000000000000, 1.000000000000000000 ) ) ;
#236 = DIRECTION ( 'NONE',  ( 1.000000000000000000, 0.000000000000000000, 0.000000000000000000 ) ) ;
#237 = FACE_OUTER_BOUND ( 'NONE', #104, .T. ) ;
#238 = FACE_OUTER_BOUND ( 'NONE', #109, .T. ) ;
#239 = AXIS2_PLACEMENT_3D ( 'NONE', #24, #194, #99 ) ;
#240 = CARTESIAN_POINT ( 'NONE',  ( 0.000000000000000000, 0.000000000000000000, 3.000000000000000000 ) ) ;
#241 = VECTOR ( 'NONE', #163, 1000.000000000000000 ) ;
#242 = CALENDAR_DATE ( 2022, 7, 7 ) ;
#243 = MANIFOLD_SOLID_BREP ( 'Zaoblit1', #135 ) ;
#244 = DATE_AND_TIME ( #201, #20 ) ;
#245 = CALENDAR_DATE ( 2022, 7, 7 ) ;
#246 = ORIENTED_EDGE ( 'NONE', *, *, #139, .F. ) ;
#247 = VERTEX_POINT ( 'NONE', #45 ) ;
#248 =( GEOMETRIC_REPRESENTATION_CONTEXT ( 3 ) GLOBAL_UNCERTAINTY_ASSIGNED_CONTEXT ( ( #211 ) ) GLOBAL_UNIT_ASSIGNED_CONTEXT ( ( #296, #250, #18 ) ) REPRESENTATION_CONTEXT ( 'NONE', 'WORKASPACE' ) );
#249 = ORIENTED_EDGE ( 'NONE', *, *, #48, .T. ) ;
#250 =( NAMED_UNIT ( * ) PLANE_ANGLE_UNIT ( ) SI_UNIT ( $, .RADIAN. ) );
#251 = PLANE ( 'NONE',  #46 ) ;
#252 = ORIENTED_EDGE ( 'NONE', *, *, #254, .T. ) ;
#253 = DIRECTION ( 'NONE',  ( -1.000000000000000000, 0.000000000000000000, 0.000000000000000000 ) ) ;
#254 = EDGE_CURVE ( 'NONE', #107, #272, #212, .T. ) ;
#255 = DIRECTION ( 'NONE',  ( -0.000000000000000000, -0.000000000000000000, -1.000000000000000000 ) ) ;
#256 = AXIS2_PLACEMENT_3D ( 'NONE', #53, #193, #236 ) ;
#257 = AXIS2_PLACEMENT_3D ( 'NONE', #210, #161, #41 ) ;
#258 = PERSON_AND_ORGANIZATION_ROLE ( 'design_owner' ) ;
#259 = CARTESIAN_POINT ( 'NONE',  ( -1.950000000000000178, 2.388061258337339136E-16, 3.000000000000004441 ) ) ;
#260 = CARTESIAN_POINT ( 'NONE',  ( -3.500000000000000444, 0.000000000000000000, 3.000000000000000000 ) ) ;
#261 = EDGE_CURVE ( 'NONE', #43, #8, #95, .T. ) ;
#262 = CIRCLE ( 'NONE', #216, 1.750000000000000000 ) ;
#263 = CARTESIAN_POINT ( 'NONE',  ( 0.000000000000000000, 0.000000000000000000, 3.200000000000008171 ) ) ;
#264 = CARTESIAN_POINT ( 'NONE',  ( 1.950000000000000178, 0.000000000000000000, 3.000000000000004441 ) ) ;
#265 = ADVANCED_FACE ( 'NONE', ( #16 ), #230, .T. ) ;
#266 = APPROVAL_PERSON_ORGANIZATION ( #138, #118, #150 ) ;
#267 = PERSON_AND_ORGANIZATION ( #77, #26 ) ;
#268 = AXIS2_PLACEMENT_3D ( 'NONE', #131, #255, #113 ) ;
#269 = ORIENTED_EDGE ( 'NONE', *, *, #92, .T. ) ;
#270 = CC_DESIGN_DATE_AND_TIME_ASSIGNMENT ( #149, #102, ( #105 ) ) ;
#271 = DIRECTION ( 'NONE',  ( 1.000000000000000000, 0.000000000000000000, 0.000000000000000000 ) ) ;
#272 = VERTEX_POINT ( 'NONE', #44 ) ;
#273 = DIRECTION ( 'NONE',  ( -1.000000000000000000, 0.000000000000000000, 0.000000000000000000 ) ) ;
#274 = AXIS2_PLACEMENT_3D ( 'NONE', #94, #68, #273 ) ;
#275 = DIRECTION ( 'NONE',  ( 0.000000000000000000, 0.000000000000000000, 1.000000000000000000 ) ) ;
#276 = ORIENTED_EDGE ( 'NONE', *, *, #4, .F. ) ;
#277 = CARTESIAN_POINT ( 'NONE',  ( 3.500000000000000444, 4.286263797015737088E-16, 3.000000000000000000 ) ) ;
#278 = ADVANCED_FACE ( 'NONE', ( #112 ), #11, .T. ) ;
#279 = MECHANICAL_CONTEXT ( 'NONE', #66, 'mechanical' ) ;
#280 = AXIS2_PLACEMENT_3D ( 'NONE', #117, #283, #174 ) ;
#281 = DIRECTION ( 'NONE',  ( 1.000000000000000000, 0.000000000000000000, -0.000000000000000000 ) ) ;
#282 = DIRECTION ( 'NONE',  ( 0.000000000000000000, 0.000000000000000000, 1.000000000000000000 ) ) ;
#283 = DIRECTION ( 'NONE',  ( 0.000000000000000000, 0.000000000000000000, 1.000000000000000000 ) ) ;
#284 = PLANE ( 'NONE',  #257 ) ;
#285 = PERSON_AND_ORGANIZATION_ROLE ( 'creator' ) ;
#286 = PERSON_AND_ORGANIZATION ( #77, #26 ) ;
#287 = AXIS2_PLACEMENT_3D ( 'NONE', #144, #305, #175 ) ;
#288 = AXIS2_PLACEMENT_3D ( 'NONE', #240, #116, #51 ) ;
#289 = ADVANCED_FACE ( 'NONE', ( #15 ), #213, .T. ) ;
#290 = EDGE_LOOP ( 'NONE', ( #291, #64 ) ) ;
#291 = ORIENTED_EDGE ( 'NONE', *, *, #17, .T. ) ;
#292 = ORIENTED_EDGE ( 'NONE', *, *, #4, .T. ) ;
#293 = FACE_BOUND ( 'NONE', #202, .T. ) ;
#294 = ORIENTED_EDGE ( 'NONE', *, *, #17, .F. ) ;
#295 = TOROIDAL_SURFACE ( 'NONE', #256, 1.950000000000000178, 0.2000000000000000111 ) ;
#296 =( LENGTH_UNIT ( ) NAMED_UNIT ( * ) SI_UNIT ( .MILLI., .METRE. ) );
#297 = PERSON_AND_ORGANIZATION ( #77, #26 ) ;
#298 = CC_DESIGN_DATE_AND_TIME_ASSIGNMENT ( #29, #151, ( #70 ) ) ;
#299 = CARTESIAN_POINT ( 'NONE',  ( 1.750000000000000000, 2.143131898507868297E-16, 163.0000000000000000 ) ) ;
#300 = CARTESIAN_POINT ( 'NONE',  ( 0.000000000000000000, 0.000000000000000000, 163.0000000000000000 ) ) ;
#301 = DIRECTION ( 'NONE',  ( -1.000000000000000000, 0.000000000000000000, 0.000000000000000000 ) ) ;
#302 = EDGE_CURVE ( 'NONE', #62, #128, #307, .T. ) ;
#303 = CIRCLE ( 'NONE', #239, 3.500000000000000444 ) ;
#304 = VECTOR ( 'NONE', #186, 1000.000000000000000 ) ;
#305 = DIRECTION ( 'NONE',  ( 1.224646799147353207E-16, 1.000000000000000000, -0.000000000000000000 ) ) ;
#306 = CALENDAR_DATE ( 2022, 7, 7 ) ;
#307 = CIRCLE ( 'NONE', #165, 1.750000000000000000 ) ;
ENDSEC;
END-ISO-10303-21;
