ISO-10303-21;
HEADER;
FILE_DESCRIPTION (( 'STEP AP203' ),
    '1' );
FILE_NAME ('534b.STEP',
    '2022-07-07T10:04:46',
    ( '' ),
    ( '' ),
    'SwSTEP 2.0',
    'SolidWorks 2019',
    '' );
FILE_SCHEMA (( 'CONFIG_CONTROL_DESIGN' ));
ENDSEC;

DATA;
#1 = CLOSED_SHELL ( 'NONE', ( #275, #183, #144, #256, #75, #195, #7, #164, #176 ) ) ;
#2 = EDGE_CURVE ( 'NONE', #132, #79, #228, .T. ) ;
#3 = CALENDAR_DATE ( 2022, 7, 7 ) ;
#4 = APPROVAL_DATE_TIME ( #238, #111 ) ;
#5 = ORIENTED_EDGE ( 'NONE', *, *, #147, .T. ) ;
#6 = CIRCLE ( 'NONE', #202, 6.000000000000000888 ) ;
#7 = ADVANCED_FACE ( 'NONE', ( #201 ), #277, .T. ) ;
#8 = DIRECTION ( 'NONE',  ( 0.000000000000000000, 0.000000000000000000, 1.000000000000000000 ) ) ;
#9 = VERTEX_POINT ( 'NONE', #57 ) ;
#10 = CARTESIAN_POINT ( 'NONE',  ( 6.000000000000000888, 7.347880794884120722E-16, 0.000000000000000000 ) ) ;
#11 = DIRECTION ( 'NONE',  ( 0.000000000000000000, 0.000000000000000000, 1.000000000000000000 ) ) ;
#12 = VECTOR ( 'NONE', #269, 1000.000000000000000 ) ;
#13 = CC_DESIGN_PERSON_AND_ORGANIZATION_ASSIGNMENT ( #188, #97, ( #232 ) ) ;
#14 = ORIENTED_EDGE ( 'NONE', *, *, #167, .F. ) ;
#15 = ORIENTED_EDGE ( 'NONE', *, *, #33, .F. ) ;
#16 = ORIENTED_EDGE ( 'NONE', *, *, #94, .F. ) ;
#17 = DIRECTION ( 'NONE',  ( 1.000000000000000000, 0.000000000000000000, 0.000000000000000000 ) ) ;
#18 = EDGE_CURVE ( 'NONE', #218, #80, #62, .T. ) ;
#19 = DIRECTION ( 'NONE',  ( 0.000000000000000000, 0.000000000000000000, -1.000000000000000000 ) ) ;
#20 = CIRCLE ( 'NONE', #255, 3.750000000000000000 ) ;
#21 = CARTESIAN_POINT ( 'NONE',  ( -6.000000000000000888, 0.000000000000000000, 5.000000000000000000 ) ) ;
#22 = FACE_OUTER_BOUND ( 'NONE', #59, .T. ) ;
#23 = APPLICATION_CONTEXT ( 'configuration controlled 3d designs of mechanical parts and assemblies' ) ;
#24 = DIRECTION ( 'NONE',  ( -1.000000000000000000, 0.000000000000000000, 0.000000000000000000 ) ) ;
#25 = CC_DESIGN_DATE_AND_TIME_ASSIGNMENT ( #264, #187, ( #261 ) ) ;
#26 = FACE_OUTER_BOUND ( 'NONE', #200, .T. ) ;
#27 = PERSON_AND_ORGANIZATION_ROLE ( 'creator' ) ;
#28 = COORDINATED_UNIVERSAL_TIME_OFFSET ( 1, 0, .AHEAD. ) ;
#29 = DIRECTION ( 'NONE',  ( 0.000000000000000000, 0.000000000000000000, 1.000000000000000000 ) ) ;
#30 = VECTOR ( 'NONE', #92, 1000.000000000000000 ) ;
#31 = CC_DESIGN_APPROVAL ( #111, ( #232 ) ) ;
#32 = PERSON_AND_ORGANIZATION ( #206, #137 ) ;
#33 = EDGE_CURVE ( 'NONE', #9, #132, #20, .T. ) ;
#34 = CARTESIAN_POINT ( 'NONE',  ( 3.750000000000000000, 4.592425496802573972E-16, 405.0000000000000000 ) ) ;
#35 = ORIENTED_EDGE ( 'NONE', *, *, #2, .T. ) ;
#36 = AXIS2_PLACEMENT_3D ( 'NONE', #306, #182, #89 ) ;
#37 = DIRECTION ( 'NONE',  ( 0.000000000000000000, 0.000000000000000000, 1.000000000000000000 ) ) ;
#38 = EDGE_CURVE ( 'NONE', #106, #79, #66, .T. ) ;
#39 = EDGE_LOOP ( 'NONE', ( #77, #35, #131, #293 ) ) ;
#40 = ORIENTED_EDGE ( 'NONE', *, *, #71, .F. ) ;
#41 = CARTESIAN_POINT ( 'NONE',  ( 0.000000000000000000, 0.000000000000000000, 5.000000000000000000 ) ) ;
#42 = AXIS2_PLACEMENT_3D ( 'NONE', #101, #37, #17 ) ;
#43 = EDGE_LOOP ( 'NONE', ( #224, #15, #138, #58 ) ) ;
#44 = LINE ( 'NONE', #86, #267 ) ;
#45 = AXIS2_PLACEMENT_3D ( 'NONE', #47, #158, #19 ) ;
#46 = CARTESIAN_POINT ( 'NONE',  ( 0.000000000000000000, 0.000000000000000000, 5.199999999999982414 ) ) ;
#47 = CARTESIAN_POINT ( 'NONE',  ( 3.949999999999999734, 0.000000000000000000, 5.199999999999982414 ) ) ;
#48 = CARTESIAN_POINT ( 'NONE',  ( 3.949999999999999734, 0.000000000000000000, 4.999999999999991118 ) ) ;
#49 = PRODUCT_DEFINITION_FORMATION_WITH_SPECIFIED_SOURCE ( 'LIBOVOLNÝ', '', #284, .NOT_KNOWN. ) ;
#50 = DIRECTION ( 'NONE',  ( 1.000000000000000000, 0.000000000000000000, 0.000000000000000000 ) ) ;
#51 = UNCERTAINTY_MEASURE_WITH_UNIT (LENGTH_MEASURE( 1.000000000000000082E-05 ), #258, 'distance_accuracy_value', 'NONE');
#52 = PERSON_AND_ORGANIZATION ( #206, #137 ) ;
#53 = SHAPE_DEFINITION_REPRESENTATION ( #236, #294 ) ;
#54 = AXIS2_PLACEMENT_3D ( 'NONE', #181, #114, #304 ) ;
#55 = APPROVAL_STATUS ( 'not_yet_approved' ) ;
#56 = ORIENTED_EDGE ( 'NONE', *, *, #289, .T. ) ;
#57 = CARTESIAN_POINT ( 'NONE',  ( -3.750000000000000000, 0.000000000000000000, 405.0000000000000000 ) ) ;
#58 = ORIENTED_EDGE ( 'NONE', *, *, #38, .T. ) ;
#59 = EDGE_LOOP ( 'NONE', ( #130, #56, #295, #225 ) ) ;
#60 = FACE_OUTER_BOUND ( 'NONE', #122, .T. ) ;
#61 = LINE ( 'NONE', #133, #126 ) ;
#62 = CIRCLE ( 'NONE', #81, 6.000000000000000888 ) ;
#63 = CARTESIAN_POINT ( 'NONE',  ( 0.000000000000000000, 0.000000000000000000, 5.000000000000000000 ) ) ;
#64 = CC_DESIGN_PERSON_AND_ORGANIZATION_ASSIGNMENT ( #118, #27, ( #49 ) ) ;
#65 = DIRECTION ( 'NONE',  ( 0.000000000000000000, 0.000000000000000000, 1.000000000000000000 ) ) ;
#66 = CIRCLE ( 'NONE', #209, 3.750000000000000000 ) ;
#67 = APPROVAL ( #55, 'NEURÈENÝ' ) ;
#68 = DIRECTION ( 'NONE',  ( 1.224646799147353207E-16, 1.000000000000000000, -0.000000000000000000 ) ) ;
#69 = AXIS2_PLACEMENT_3D ( 'NONE', #283, #65, #233 ) ;
#70 = CARTESIAN_POINT ( 'NONE',  ( 0.000000000000000000, 0.000000000000000000, 5.000000000000000000 ) ) ;
#71 = EDGE_CURVE ( 'NONE', #155, #135, #297, .T. ) ;
#72 = CIRCLE ( 'NONE', #247, 3.949999999999999734 ) ;
#73 = APPROVAL_ROLE ( '' ) ;
#74 = PERSON_AND_ORGANIZATION ( #206, #137 ) ;
#75 = ADVANCED_FACE ( 'NONE', ( #194, #60 ), #177, .T. ) ;
#76 = CALENDAR_DATE ( 2022, 7, 7 ) ;
#77 = ORIENTED_EDGE ( 'NONE', *, *, #147, .F. ) ;
#78 = ORIENTED_EDGE ( 'NONE', *, *, #221, .F. ) ;
#79 = VERTEX_POINT ( 'NONE', #129 ) ;
#80 = VERTEX_POINT ( 'NONE', #10 ) ;
#81 = AXIS2_PLACEMENT_3D ( 'NONE', #150, #11, #82 ) ;
#82 = DIRECTION ( 'NONE',  ( 1.000000000000000000, 0.000000000000000000, 0.000000000000000000 ) ) ;
#83 = CARTESIAN_POINT ( 'NONE',  ( 0.000000000000000000, 0.000000000000000000, 5.199999999999982414 ) ) ;
#84 = ORIENTED_EDGE ( 'NONE', *, *, #289, .F. ) ;
#85 = EDGE_CURVE ( 'NONE', #149, #196, #189, .T. ) ;
#86 = CARTESIAN_POINT ( 'NONE',  ( -3.750000000000000000, 0.000000000000000000, 405.0000000000000000 ) ) ;
#87 = APPLICATION_CONTEXT ( 'configuration controlled 3d designs of mechanical parts and assemblies' ) ;
#88 = AXIS2_PLACEMENT_3D ( 'NONE', #302, #68, #162 ) ;
#89 = DIRECTION ( 'NONE',  ( 1.000000000000000000, 0.000000000000000000, 0.000000000000000000 ) ) ;
#90 = EDGE_CURVE ( 'NONE', #80, #218, #6, .T. ) ;
#91 = DIRECTION ( 'NONE',  ( 0.000000000000000000, 0.000000000000000000, 1.000000000000000000 ) ) ;
#92 = DIRECTION ( 'NONE',  ( -0.000000000000000000, -0.000000000000000000, -1.000000000000000000 ) ) ;
#93 = APPROVAL_PERSON_ORGANIZATION ( #52, #111, #285 ) ;
#94 = EDGE_CURVE ( 'NONE', #196, #149, #72, .T. ) ;
#95 = DIRECTION ( 'NONE',  ( -1.000000000000000000, 0.000000000000000000, 0.000000000000000000 ) ) ;
#96 = DESIGN_CONTEXT ( 'detailed design', #23, 'design' ) ;
#97 = PERSON_AND_ORGANIZATION_ROLE ( 'creator' ) ;
#98 = DATE_AND_TIME ( #3, #226 ) ;
#99 =( NAMED_UNIT ( * ) SI_UNIT ( $, .STERADIAN. ) SOLID_ANGLE_UNIT ( ) );
#100 = EDGE_CURVE ( 'NONE', #135, #80, #61, .T. ) ;
#101 = CARTESIAN_POINT ( 'NONE',  ( 0.000000000000000000, 0.000000000000000000, 5.000000000000000000 ) ) ;
#102 = ORIENTED_EDGE ( 'NONE', *, *, #134, .T. ) ;
#103 = EDGE_LOOP ( 'NONE', ( #78, #249, #245, #105 ) ) ;
#104 = ORIENTED_EDGE ( 'NONE', *, *, #221, .T. ) ;
#105 = ORIENTED_EDGE ( 'NONE', *, *, #134, .F. ) ;
#106 = VERTEX_POINT ( 'NONE', #252 ) ;
#107 = CC_DESIGN_PERSON_AND_ORGANIZATION_ASSIGNMENT ( #74, #217, ( #49 ) ) ;
#108 = DIRECTION ( 'NONE',  ( -0.000000000000000000, -0.000000000000000000, -1.000000000000000000 ) ) ;
#109 = DIRECTION ( 'NONE',  ( 0.000000000000000000, 0.000000000000000000, 1.000000000000000000 ) ) ;
#110 = PLANE ( 'NONE',  #54 ) ;
#111 = APPROVAL ( #242, 'NEURÈENÝ' ) ;
#112 = FACE_OUTER_BOUND ( 'NONE', #270, .T. ) ;
#113 = CARTESIAN_POINT ( 'NONE',  ( 0.000000000000000000, 0.000000000000000000, 405.0000000000000000 ) ) ;
#114 = DIRECTION ( 'NONE',  ( 0.000000000000000000, 0.000000000000000000, 1.000000000000000000 ) ) ;
#115 = AXIS2_PLACEMENT_3D ( 'NONE', #46, #207, #281 ) ;
#116 = COORDINATED_UNIVERSAL_TIME_OFFSET ( 1, 0, .AHEAD. ) ;
#117 = SECURITY_CLASSIFICATION_LEVEL ( 'unclassified' ) ;
#118 = PERSON_AND_ORGANIZATION ( #206, #137 ) ;
#119 = CC_DESIGN_DATE_AND_TIME_ASSIGNMENT ( #123, #290, ( #232 ) ) ;
#120 = APPROVAL_PERSON_ORGANIZATION ( #291, #172, #73 ) ;
#121 = CARTESIAN_POINT ( 'NONE',  ( 0.000000000000000000, 0.000000000000000000, 0.000000000000000000 ) ) ;
#122 = EDGE_LOOP ( 'NONE', ( #197, #104 ) ) ;
#123 = DATE_AND_TIME ( #76, #282 ) ;
#124 = EDGE_LOOP ( 'NONE', ( #84, #14, #273, #16 ) ) ;
#125 = EDGE_CURVE ( 'NONE', #9, #106, #44, .T. ) ;
#126 = VECTOR ( 'NONE', #156, 1000.000000000000000 ) ;
#127 = DIRECTION ( 'NONE',  ( 1.000000000000000000, 0.000000000000000000, 0.000000000000000000 ) ) ;
#128 = LOCAL_TIME ( 12, 4, 46.00000000000000000, #170 ) ;
#129 = CARTESIAN_POINT ( 'NONE',  ( 3.750000000000000000, 4.592425496802573972E-16, 5.199999999999982414 ) ) ;
#130 = ORIENTED_EDGE ( 'NONE', *, *, #38, .F. ) ;
#131 = ORIENTED_EDGE ( 'NONE', *, *, #167, .T. ) ;
#132 = VERTEX_POINT ( 'NONE', #34 ) ;
#133 = CARTESIAN_POINT ( 'NONE',  ( 6.000000000000000888, 7.347880794884120722E-16, 5.000000000000000000 ) ) ;
#134 = EDGE_CURVE ( 'NONE', #155, #218, #192, .T. ) ;
#135 = VERTEX_POINT ( 'NONE', #259 ) ;
#136 = CIRCLE ( 'NONE', #141, 3.750000000000000000 ) ;
#137 = ORGANIZATION ( 'NEURÈENÝ', 'NEURÈENÝ', '' ) ;
#138 = ORIENTED_EDGE ( 'NONE', *, *, #125, .T. ) ;
#139 = FACE_OUTER_BOUND ( 'NONE', #171, .T. ) ;
#140 = DIRECTION ( 'NONE',  ( 0.000000000000000000, 0.000000000000000000, 1.000000000000000000 ) ) ;
#141 = AXIS2_PLACEMENT_3D ( 'NONE', #160, #91, #50 ) ;
#142 = DIRECTION ( 'NONE',  ( -0.000000000000000000, -0.000000000000000000, -1.000000000000000000 ) ) ;
#143 = CARTESIAN_POINT ( 'NONE',  ( 0.000000000000000000, 0.000000000000000000, 405.0000000000000000 ) ) ;
#144 = ADVANCED_FACE ( 'NONE', ( #234 ), #211, .T. ) ;
#145 = CALENDAR_DATE ( 2022, 7, 7 ) ;
#146 = APPROVAL_ROLE ( '' ) ;
#147 = EDGE_CURVE ( 'NONE', #132, #9, #184, .T. ) ;
#148 = DIRECTION ( 'NONE',  ( 0.000000000000000000, 0.000000000000000000, 1.000000000000000000 ) ) ;
#149 = VERTEX_POINT ( 'NONE', #48 ) ;
#150 = CARTESIAN_POINT ( 'NONE',  ( 0.000000000000000000, 0.000000000000000000, 0.000000000000000000 ) ) ;
#151 = ORIENTED_EDGE ( 'NONE', *, *, #33, .T. ) ;
#152 = CARTESIAN_POINT ( 'NONE',  ( 3.750000000000000000, 4.592425496802573972E-16, 405.0000000000000000 ) ) ;
#153 = PRODUCT_RELATED_PRODUCT_CATEGORY ( 'detail', '', ( #284 ) ) ;
#154 = CARTESIAN_POINT ( 'NONE',  ( 0.000000000000000000, 0.000000000000000000, 5.000000000000000000 ) ) ;
#155 = VERTEX_POINT ( 'NONE', #254 ) ;
#156 = DIRECTION ( 'NONE',  ( -0.000000000000000000, -0.000000000000000000, -1.000000000000000000 ) ) ;
#157 = LOCAL_TIME ( 12, 4, 46.00000000000000000, #260 ) ;
#158 = DIRECTION ( 'NONE',  ( 0.000000000000000000, -1.000000000000000000, 0.000000000000000000 ) ) ;
#159 = CARTESIAN_POINT ( 'NONE',  ( -3.949999999999999734, 4.837354856632044071E-16, 4.999999999999991118 ) ) ;
#160 = CARTESIAN_POINT ( 'NONE',  ( 0.000000000000000000, 0.000000000000000000, 5.199999999999982414 ) ) ;
#161 = CC_DESIGN_APPROVAL ( #172, ( #261 ) ) ;
#162 = DIRECTION ( 'NONE',  ( -1.000000000000000000, 1.224646799147353454E-16, 0.000000000000000000 ) ) ;
#163 = DIRECTION ( 'NONE',  ( 1.000000000000000000, 0.000000000000000000, 0.000000000000000000 ) ) ;
#164 = ADVANCED_FACE ( 'NONE', ( #139 ), #205, .T. ) ;
#165 = COORDINATED_UNIVERSAL_TIME_OFFSET ( 1, 0, .AHEAD. ) ;
#166 = CALENDAR_DATE ( 2022, 7, 7 ) ;
#167 = EDGE_CURVE ( 'NONE', #79, #106, #136, .T. ) ;
#168 = MECHANICAL_CONTEXT ( 'NONE', #87, 'mechanical' ) ;
#169 = PERSON_AND_ORGANIZATION_ROLE ( 'classification_officer' ) ;
#170 = COORDINATED_UNIVERSAL_TIME_OFFSET ( 1, 0, .AHEAD. ) ;
#171 = EDGE_LOOP ( 'NONE', ( #151, #5 ) ) ;
#172 = APPROVAL ( #286, 'NEURÈENÝ' ) ;
#173 = ORIENTED_EDGE ( 'NONE', *, *, #85, .T. ) ;
#174 = CARTESIAN_POINT ( 'NONE',  ( 0.000000000000000000, 0.000000000000000000, 5.000000000000000000 ) ) ;
#175 = AXIS2_PLACEMENT_3D ( 'NONE', #63, #231, #95 ) ;
#176 = ADVANCED_FACE ( 'NONE', ( #186 ), #266, .F. ) ;
#177 = PLANE ( 'NONE',  #250 ) ;
#178 = DIRECTION ( 'NONE',  ( 0.000000000000000000, 0.000000000000000000, 1.000000000000000000 ) ) ;
#179 = DIRECTION ( 'NONE',  ( -0.000000000000000000, -0.000000000000000000, -1.000000000000000000 ) ) ;
#180 = DIRECTION ( 'NONE',  ( -0.000000000000000000, -0.000000000000000000, -1.000000000000000000 ) ) ;
#181 = CARTESIAN_POINT ( 'NONE',  ( 0.000000000000000000, 0.000000000000000000, 0.000000000000000000 ) ) ;
#182 = DIRECTION ( 'NONE',  ( 0.000000000000000000, 0.000000000000000000, 1.000000000000000000 ) ) ;
#183 = ADVANCED_FACE ( 'NONE', ( #303 ), #257, .T. ) ;
#184 = CIRCLE ( 'NONE', #69, 3.750000000000000000 ) ;
#185 = CIRCLE ( 'NONE', #88, 0.1999999999999996503 ) ;
#186 = FACE_OUTER_BOUND ( 'NONE', #124, .T. ) ;
#187 = DATE_TIME_ROLE ( 'classification_date' ) ;
#188 = PERSON_AND_ORGANIZATION ( #206, #137 ) ;
#189 = CIRCLE ( 'NONE', #235, 3.949999999999999734 ) ;
#190 = ORIENTED_EDGE ( 'NONE', *, *, #94, .T. ) ;
#191 = CC_DESIGN_SECURITY_CLASSIFICATION ( #261, ( #49 ) ) ;
#192 = LINE ( 'NONE', #21, #30 ) ;
#193 = ORIENTED_EDGE ( 'NONE', *, *, #18, .F. ) ;
#194 = FACE_BOUND ( 'NONE', #298, .T. ) ;
#195 = ADVANCED_FACE ( 'NONE', ( #26 ), #110, .F. ) ;
#196 = VERTEX_POINT ( 'NONE', #159 ) ;
#197 = ORIENTED_EDGE ( 'NONE', *, *, #71, .T. ) ;
#198 = AXIS2_PLACEMENT_3D ( 'NONE', #70, #180, #24 ) ;
#199 = APPROVAL_PERSON_ORGANIZATION ( #32, #67, #146 ) ;
#200 = EDGE_LOOP ( 'NONE', ( #193, #268 ) ) ;
#201 = FACE_OUTER_BOUND ( 'NONE', #43, .T. ) ;
#202 = AXIS2_PLACEMENT_3D ( 'NONE', #301, #219, #246 ) ;
#203 = CARTESIAN_POINT ( 'NONE',  ( -6.000000000000000888, 0.000000000000000000, 0.000000000000000000 ) ) ;
#204 = TOROIDAL_SURFACE ( 'NONE', #115, 3.949999999999999734, 0.2000000000000000111 ) ;
#205 = PLANE ( 'NONE',  #243 ) ;
#206 = PERSON ( 'NEURÈENÝ', 'NEURÈENÝ', 'NEURÈENÝ', ('NEURÈENÝ'), ('NEURÈENÝ'), ('NEURÈENÝ') ) ;
#207 = DIRECTION ( 'NONE',  ( 0.000000000000000000, 0.000000000000000000, 1.000000000000000000 ) ) ;
#208 = DIRECTION ( 'NONE',  ( 1.000000000000000000, 0.000000000000000000, -0.000000000000000000 ) ) ;
#209 = AXIS2_PLACEMENT_3D ( 'NONE', #83, #178, #127 ) ;
#210 =( GEOMETRIC_REPRESENTATION_CONTEXT ( 3 ) GLOBAL_UNCERTAINTY_ASSIGNED_CONTEXT ( ( #51 ) ) GLOBAL_UNIT_ASSIGNED_CONTEXT ( ( #258, #278, #99 ) ) REPRESENTATION_CONTEXT ( 'NONE', 'WORKASPACE' ) );
#211 = CYLINDRICAL_SURFACE ( 'NONE', #198, 6.000000000000000888 ) ;
#212 = APPROVAL_DATE_TIME ( #98, #67 ) ;
#213 = DATE_AND_TIME ( #263, #128 ) ;
#214 = AXIS2_PLACEMENT_3D ( 'NONE', #299, #223, #300 ) ;
#215 = CC_DESIGN_APPROVAL ( #67, ( #49 ) ) ;
#216 = PERSON_AND_ORGANIZATION_ROLE ( 'design_owner' ) ;
#217 = PERSON_AND_ORGANIZATION_ROLE ( 'design_supplier' ) ;
#218 = VERTEX_POINT ( 'NONE', #203 ) ;
#219 = DIRECTION ( 'NONE',  ( 0.000000000000000000, 0.000000000000000000, 1.000000000000000000 ) ) ;
#220 = AXIS2_PLACEMENT_3D ( 'NONE', #121, #29, #265 ) ;
#221 = EDGE_CURVE ( 'NONE', #135, #155, #253, .T. ) ;
#222 = CARTESIAN_POINT ( 'NONE',  ( 0.000000000000000000, 0.000000000000000000, 405.0000000000000000 ) ) ;
#223 = DIRECTION ( 'NONE',  ( -0.000000000000000000, -0.000000000000000000, -1.000000000000000000 ) ) ;
#224 = ORIENTED_EDGE ( 'NONE', *, *, #2, .F. ) ;
#225 = ORIENTED_EDGE ( 'NONE', *, *, #279, .F. ) ;
#226 = LOCAL_TIME ( 12, 4, 46.00000000000000000, #116 ) ;
#227 = ORIENTED_EDGE ( 'NONE', *, *, #18, .T. ) ;
#228 = LINE ( 'NONE', #152, #12 ) ;
#229 = CC_DESIGN_PERSON_AND_ORGANIZATION_ASSIGNMENT ( #307, #169, ( #261 ) ) ;
#230 = CARTESIAN_POINT ( 'NONE',  ( 0.000000000000000000, 0.000000000000000000, 5.199999999999982414 ) ) ;
#231 = DIRECTION ( 'NONE',  ( -0.000000000000000000, -0.000000000000000000, -1.000000000000000000 ) ) ;
#232 = PRODUCT_DEFINITION ( 'NEZNÁMÝ', '', #49, #96 ) ;
#233 = DIRECTION ( 'NONE',  ( 1.000000000000000000, 0.000000000000000000, 0.000000000000000000 ) ) ;
#234 = FACE_OUTER_BOUND ( 'NONE', #103, .T. ) ;
#235 = AXIS2_PLACEMENT_3D ( 'NONE', #154, #108, #276 ) ;
#236 = PRODUCT_DEFINITION_SHAPE ( 'NONE', 'NONE',  #232 ) ;
#237 = CIRCLE ( 'NONE', #45, 0.1999999999999996503 ) ;
#238 = DATE_AND_TIME ( #145, #292 ) ;
#239 = APPLICATION_PROTOCOL_DEFINITION ( 'international standard', 'config_control_design', 1994, #23 ) ;
#240 = APPLICATION_PROTOCOL_DEFINITION ( 'international standard', 'config_control_design', 1994, #87 ) ;
#241 = MANIFOLD_SOLID_BREP ( 'Zaoblit1', #1 ) ;
#242 = APPROVAL_STATUS ( 'not_yet_approved' ) ;
#243 = AXIS2_PLACEMENT_3D ( 'NONE', #113, #140, #208 ) ;
#244 = CC_DESIGN_PERSON_AND_ORGANIZATION_ASSIGNMENT ( #262, #216, ( #284 ) ) ;
#245 = ORIENTED_EDGE ( 'NONE', *, *, #90, .T. ) ;
#246 = DIRECTION ( 'NONE',  ( 1.000000000000000000, 0.000000000000000000, 0.000000000000000000 ) ) ;
#247 = AXIS2_PLACEMENT_3D ( 'NONE', #41, #296, #271 ) ;
#248 = DIRECTION ( 'NONE',  ( 1.000000000000000000, 0.000000000000000000, 0.000000000000000000 ) ) ;
#249 = ORIENTED_EDGE ( 'NONE', *, *, #100, .T. ) ;
#250 = AXIS2_PLACEMENT_3D ( 'NONE', #174, #148, #274 ) ;
#251 = ORIENTED_EDGE ( 'NONE', *, *, #100, .F. ) ;
#252 = CARTESIAN_POINT ( 'NONE',  ( -3.750000000000000000, 0.000000000000000000, 5.199999999999982414 ) ) ;
#253 = CIRCLE ( 'NONE', #36, 6.000000000000000888 ) ;
#254 = CARTESIAN_POINT ( 'NONE',  ( -6.000000000000000888, 0.000000000000000000, 5.000000000000000000 ) ) ;
#255 = AXIS2_PLACEMENT_3D ( 'NONE', #222, #8, #248 ) ;
#256 = ADVANCED_FACE ( 'NONE', ( #112 ), #280, .T. ) ;
#257 = CYLINDRICAL_SURFACE ( 'NONE', #272, 3.750000000000000000 ) ;
#258 =( LENGTH_UNIT ( ) NAMED_UNIT ( * ) SI_UNIT ( .MILLI., .METRE. ) );
#259 = CARTESIAN_POINT ( 'NONE',  ( 6.000000000000000888, 7.347880794884120722E-16, 5.000000000000000000 ) ) ;
#260 = COORDINATED_UNIVERSAL_TIME_OFFSET ( 1, 0, .AHEAD. ) ;
#261 = SECURITY_CLASSIFICATION ( '', '', #117 ) ;
#262 = PERSON_AND_ORGANIZATION ( #206, #137 ) ;
#263 = CALENDAR_DATE ( 2022, 7, 7 ) ;
#264 = DATE_AND_TIME ( #166, #157 ) ;
#265 = DIRECTION ( 'NONE',  ( 1.000000000000000000, 0.000000000000000000, 0.000000000000000000 ) ) ;
#266 = TOROIDAL_SURFACE ( 'NONE', #287, 3.949999999999999734, 0.2000000000000000111 ) ;
#267 = VECTOR ( 'NONE', #179, 1000.000000000000000 ) ;
#268 = ORIENTED_EDGE ( 'NONE', *, *, #90, .F. ) ;
#269 = DIRECTION ( 'NONE',  ( -0.000000000000000000, -0.000000000000000000, -1.000000000000000000 ) ) ;
#270 = EDGE_LOOP ( 'NONE', ( #251, #40, #102, #227 ) ) ;
#271 = DIRECTION ( 'NONE',  ( 1.000000000000000000, 0.000000000000000000, 0.000000000000000000 ) ) ;
#272 = AXIS2_PLACEMENT_3D ( 'NONE', #143, #142, #305 ) ;
#273 = ORIENTED_EDGE ( 'NONE', *, *, #279, .T. ) ;
#274 = DIRECTION ( 'NONE',  ( 1.000000000000000000, 0.000000000000000000, -0.000000000000000000 ) ) ;
#275 = ADVANCED_FACE ( 'NONE', ( #22 ), #204, .F. ) ;
#276 = DIRECTION ( 'NONE',  ( 1.000000000000000000, 0.000000000000000000, 0.000000000000000000 ) ) ;
#277 = CYLINDRICAL_SURFACE ( 'NONE', #214, 3.750000000000000000 ) ;
#278 =( NAMED_UNIT ( * ) PLANE_ANGLE_UNIT ( ) SI_UNIT ( $, .RADIAN. ) );
#279 = EDGE_CURVE ( 'NONE', #79, #149, #237, .T. ) ;
#280 = CYLINDRICAL_SURFACE ( 'NONE', #175, 6.000000000000000888 ) ;
#281 = DIRECTION ( 'NONE',  ( 1.000000000000000000, 0.000000000000000000, 0.000000000000000000 ) ) ;
#282 = LOCAL_TIME ( 12, 4, 46.00000000000000000, #28 ) ;
#283 = CARTESIAN_POINT ( 'NONE',  ( 0.000000000000000000, 0.000000000000000000, 405.0000000000000000 ) ) ;
#284 = PRODUCT ( '534b', '534b', '', ( #168 ) ) ;
#285 = APPROVAL_ROLE ( '' ) ;
#286 = APPROVAL_STATUS ( 'not_yet_approved' ) ;
#287 = AXIS2_PLACEMENT_3D ( 'NONE', #230, #109, #163 ) ;
#288 = APPROVAL_DATE_TIME ( #213, #172 ) ;
#289 = EDGE_CURVE ( 'NONE', #106, #196, #185, .T. ) ;
#290 = DATE_TIME_ROLE ( 'creation_date' ) ;
#291 = PERSON_AND_ORGANIZATION ( #206, #137 ) ;
#292 = LOCAL_TIME ( 12, 4, 46.00000000000000000, #165 ) ;
#293 = ORIENTED_EDGE ( 'NONE', *, *, #125, .F. ) ;
#294 = ADVANCED_BREP_SHAPE_REPRESENTATION ( '534b', ( #241, #220 ), #210 ) ;
#295 = ORIENTED_EDGE ( 'NONE', *, *, #85, .F. ) ;
#296 = DIRECTION ( 'NONE',  ( -0.000000000000000000, -0.000000000000000000, -1.000000000000000000 ) ) ;
#297 = CIRCLE ( 'NONE', #42, 6.000000000000000888 ) ;
#298 = EDGE_LOOP ( 'NONE', ( #173, #190 ) ) ;
#299 = CARTESIAN_POINT ( 'NONE',  ( 0.000000000000000000, 0.000000000000000000, 405.0000000000000000 ) ) ;
#300 = DIRECTION ( 'NONE',  ( -1.000000000000000000, 0.000000000000000000, 0.000000000000000000 ) ) ;
#301 = CARTESIAN_POINT ( 'NONE',  ( 0.000000000000000000, 0.000000000000000000, 0.000000000000000000 ) ) ;
#302 = CARTESIAN_POINT ( 'NONE',  ( -3.949999999999999734, 4.837354856632044071E-16, 5.199999999999982414 ) ) ;
#303 = FACE_OUTER_BOUND ( 'NONE', #39, .T. ) ;
#304 = DIRECTION ( 'NONE',  ( 1.000000000000000000, 0.000000000000000000, -0.000000000000000000 ) ) ;
#305 = DIRECTION ( 'NONE',  ( -1.000000000000000000, 0.000000000000000000, 0.000000000000000000 ) ) ;
#306 = CARTESIAN_POINT ( 'NONE',  ( 0.000000000000000000, 0.000000000000000000, 5.000000000000000000 ) ) ;
#307 = PERSON_AND_ORGANIZATION ( #206, #137 ) ;
ENDSEC;
END-ISO-10303-21;
