ISO-10303-21;
HEADER;
FILE_DESCRIPTION (( 'STEP AP203' ),
    '1' );
FILE_NAME ('2e28.STEP',
    '2022-07-07T09:36:56',
    ( '' ),
    ( '' ),
    'SwSTEP 2.0',
    'SolidWorks 2019',
    '' );
FILE_SCHEMA (( 'CONFIG_CONTROL_DESIGN' ));
ENDSEC;

DATA;
#1 = AXIS2_PLACEMENT_3D ( 'NONE', #39, #225, #270 ) ;
#2 = PRODUCT_DEFINITION_SHAPE ( 'NONE', 'NONE',  #218 ) ;
#3 = EDGE_LOOP ( 'NONE', ( #7, #282, #134, #158 ) ) ;
#4 = PERSON_AND_ORGANIZATION_ROLE ( 'design_owner' ) ;
#5 = EDGE_CURVE ( 'NONE', #112, #195, #203, .T. ) ;
#6 = CALENDAR_DATE ( 2022, 7, 7 ) ;
#7 = ORIENTED_EDGE ( 'NONE', *, *, #284, .F. ) ;
#8 = LOCAL_TIME ( 11, 36, 56.00000000000000000, #31 ) ;
#9 = AXIS2_PLACEMENT_3D ( 'NONE', #14, #296, #202 ) ;
#10 =( NAMED_UNIT ( * ) PLANE_ANGLE_UNIT ( ) SI_UNIT ( $, .RADIAN. ) );
#11 =( LENGTH_UNIT ( ) NAMED_UNIT ( * ) SI_UNIT ( .MILLI., .METRE. ) );
#12 = ORIENTED_EDGE ( 'NONE', *, *, #151, .T. ) ;
#13 = DIRECTION ( 'NONE',  ( 0.000000000000000000, 0.000000000000000000, 1.000000000000000000 ) ) ;
#14 = CARTESIAN_POINT ( 'NONE',  ( 0.000000000000000000, 0.000000000000000000, 167.0000000000000000 ) ) ;
#15 = CC_DESIGN_APPROVAL ( #56, ( #21 ) ) ;
#16 = DIRECTION ( 'NONE',  ( 0.000000000000000000, 0.000000000000000000, 1.000000000000000000 ) ) ;
#17 = VECTOR ( 'NONE', #287, 1000.000000000000000 ) ;
#18 = DIRECTION ( 'NONE',  ( 0.000000000000000000, 0.000000000000000000, 1.000000000000000000 ) ) ;
#19 = CARTESIAN_POINT ( 'NONE',  ( 0.000000000000000000, 0.000000000000000000, 7.000000000000000000 ) ) ;
#20 = CC_DESIGN_PERSON_AND_ORGANIZATION_ASSIGNMENT ( #30, #4, ( #98 ) ) ;
#21 = PRODUCT_DEFINITION_FORMATION_WITH_SPECIFIED_SOURCE ( 'LIBOVOLNÝ', '', #98, .NOT_KNOWN. ) ;
#22 = DIRECTION ( 'NONE',  ( 0.000000000000000000, 0.000000000000000000, 1.000000000000000000 ) ) ;
#23 = PERSON_AND_ORGANIZATION ( #171, #49 ) ;
#24 = CARTESIAN_POINT ( 'NONE',  ( 0.000000000000000000, 0.000000000000000000, 7.200000000000011724 ) ) ;
#25 = DIRECTION ( 'NONE',  ( -0.000000000000000000, -0.000000000000000000, -1.000000000000000000 ) ) ;
#26 = LOCAL_TIME ( 11, 36, 56.00000000000000000, #277 ) ;
#27 = ADVANCED_FACE ( 'NONE', ( #201, #295 ), #85, .T. ) ;
#28 = EDGE_LOOP ( 'NONE', ( #294, #58, #82, #80 ) ) ;
#29 = CLOSED_SHELL ( 'NONE', ( #227, #235, #204, #116, #27, #210, #67, #91, #41 ) ) ;
#30 = PERSON_AND_ORGANIZATION ( #171, #49 ) ;
#31 = COORDINATED_UNIVERSAL_TIME_OFFSET ( 1, 0, .AHEAD. ) ;
#32 = ORIENTED_EDGE ( 'NONE', *, *, #84, .T. ) ;
#33 = APPLICATION_CONTEXT ( 'configuration controlled 3d designs of mechanical parts and assemblies' ) ;
#34 = CC_DESIGN_PERSON_AND_ORGANIZATION_ASSIGNMENT ( #23, #117, ( #21 ) ) ;
#35 = CARTESIAN_POINT ( 'NONE',  ( 0.000000000000000000, 0.000000000000000000, 0.000000000000000000 ) ) ;
#36 =( NAMED_UNIT ( * ) SI_UNIT ( $, .STERADIAN. ) SOLID_ANGLE_UNIT ( ) );
#37 = ORIENTED_EDGE ( 'NONE', *, *, #151, .F. ) ;
#38 = DIRECTION ( 'NONE',  ( -0.000000000000000000, -0.000000000000000000, -1.000000000000000000 ) ) ;
#39 = CARTESIAN_POINT ( 'NONE',  ( 0.000000000000000000, 0.000000000000000000, 7.000000000000000000 ) ) ;
#40 = LINE ( 'NONE', #139, #223 ) ;
#41 = ADVANCED_FACE ( 'NONE', ( #107 ), #78, .F. ) ;
#42 = AXIS2_PLACEMENT_3D ( 'NONE', #254, #45, #142 ) ;
#43 = ORIENTED_EDGE ( 'NONE', *, *, #262, .F. ) ;
#44 = AXIS2_PLACEMENT_3D ( 'NONE', #179, #268, #62 ) ;
#45 = DIRECTION ( 'NONE',  ( 0.000000000000000000, 0.000000000000000000, 1.000000000000000000 ) ) ;
#46 = DIRECTION ( 'NONE',  ( -1.000000000000000000, 0.000000000000000000, 0.000000000000000000 ) ) ;
#47 = UNCERTAINTY_MEASURE_WITH_UNIT (LENGTH_MEASURE( 1.000000000000000082E-05 ), #11, 'distance_accuracy_value', 'NONE');
#48 = PERSON_AND_ORGANIZATION_ROLE ( 'classification_officer' ) ;
#49 = ORGANIZATION ( 'NEURÈENÝ', 'NEURÈENÝ', '' ) ;
#50 = DIRECTION ( 'NONE',  ( 1.224646799147353207E-16, 1.000000000000000000, -0.000000000000000000 ) ) ;
#51 = DIRECTION ( 'NONE',  ( 0.000000000000000000, 0.000000000000000000, 1.000000000000000000 ) ) ;
#52 = AXIS2_PLACEMENT_3D ( 'NONE', #89, #168, #255 ) ;
#53 = CIRCLE ( 'NONE', #109, 9.000000000000000000 ) ;
#54 = CIRCLE ( 'NONE', #150, 0.1999999999999996503 ) ;
#55 = EDGE_LOOP ( 'NONE', ( #99, #12 ) ) ;
#56 = APPROVAL ( #192, 'NEURÈENÝ' ) ;
#57 = DIRECTION ( 'NONE',  ( 1.000000000000000000, 0.000000000000000000, 0.000000000000000000 ) ) ;
#58 = ORIENTED_EDGE ( 'NONE', *, *, #284, .T. ) ;
#59 = CARTESIAN_POINT ( 'NONE',  ( 0.000000000000000000, 0.000000000000000000, 7.200000000000011724 ) ) ;
#60 = PERSON_AND_ORGANIZATION_ROLE ( 'creator' ) ;
#61 = VERTEX_POINT ( 'NONE', #161 ) ;
#62 = DIRECTION ( 'NONE',  ( 1.000000000000000000, 0.000000000000000000, 0.000000000000000000 ) ) ;
#63 = CARTESIAN_POINT ( 'NONE',  ( -9.000000000000000000, 0.000000000000000000, 167.0000000000000000 ) ) ;
#64 = EDGE_CURVE ( 'NONE', #106, #288, #40, .T. ) ;
#65 = CARTESIAN_POINT ( 'NONE',  ( 0.000000000000000000, 0.000000000000000000, 0.000000000000000000 ) ) ;
#66 = CIRCLE ( 'NONE', #174, 0.2000000000000005107 ) ;
#67 = ADVANCED_FACE ( 'NONE', ( #292 ), #159, .T. ) ;
#68 = CARTESIAN_POINT ( 'NONE',  ( 9.199999999999999289, 0.000000000000000000, 7.000000000000006217 ) ) ;
#69 = EDGE_CURVE ( 'NONE', #75, #177, #54, .T. ) ;
#70 = CARTESIAN_POINT ( 'NONE',  ( -9.199999999999999289, 1.126675055215564822E-15, 7.200000000000011724 ) ) ;
#71 = CALENDAR_DATE ( 2022, 7, 7 ) ;
#72 = LINE ( 'NONE', #118, #299 ) ;
#73 = AXIS2_PLACEMENT_3D ( 'NONE', #35, #127, #197 ) ;
#74 = DIRECTION ( 'NONE',  ( 0.000000000000000000, 0.000000000000000000, 1.000000000000000000 ) ) ;
#75 = VERTEX_POINT ( 'NONE', #111 ) ;
#76 = PERSON_AND_ORGANIZATION ( #171, #49 ) ;
#77 = AXIS2_PLACEMENT_3D ( 'NONE', #24, #305, #233 ) ;
#78 = TOROIDAL_SURFACE ( 'NONE', #260, 9.199999999999999289, 0.2000000000000000111 ) ;
#79 = CARTESIAN_POINT ( 'NONE',  ( 12.00000000000000178, 1.469576158976824144E-15, 0.000000000000000000 ) ) ;
#80 = ORIENTED_EDGE ( 'NONE', *, *, #64, .F. ) ;
#81 = APPLICATION_PROTOCOL_DEFINITION ( 'international standard', 'config_control_design', 1994, #153 ) ;
#82 = ORIENTED_EDGE ( 'NONE', *, *, #257, .T. ) ;
#83 = DIRECTION ( 'NONE',  ( -1.000000000000000000, 0.000000000000000000, 0.000000000000000000 ) ) ;
#84 = EDGE_CURVE ( 'NONE', #61, #106, #286, .T. ) ;
#85 = PLANE ( 'NONE',  #237 ) ;
#86 = CARTESIAN_POINT ( 'NONE',  ( 9.199999999999999289, 0.000000000000000000, 7.200000000000011724 ) ) ;
#87 = VERTEX_POINT ( 'NONE', #230 ) ;
#88 = CC_DESIGN_SECURITY_CLASSIFICATION ( #182, ( #21 ) ) ;
#89 = CARTESIAN_POINT ( 'NONE',  ( 0.000000000000000000, 0.000000000000000000, 7.000000000000000000 ) ) ;
#90 = TOROIDAL_SURFACE ( 'NONE', #77, 9.199999999999999289, 0.2000000000000000111 ) ;
#91 = ADVANCED_FACE ( 'NONE', ( #180 ), #247, .T. ) ;
#92 = DIRECTION ( 'NONE',  ( -0.000000000000000000, -0.000000000000000000, -1.000000000000000000 ) ) ;
#93 = DIRECTION ( 'NONE',  ( -0.000000000000000000, -0.000000000000000000, -1.000000000000000000 ) ) ;
#94 = CALENDAR_DATE ( 2022, 7, 7 ) ;
#95 = EDGE_CURVE ( 'NONE', #87, #293, #178, .T. ) ;
#96 = FACE_OUTER_BOUND ( 'NONE', #28, .T. ) ;
#97 = PERSON_AND_ORGANIZATION_ROLE ( 'creator' ) ;
#98 = PRODUCT ( '2e28', '2e28', '', ( #291 ) ) ;
#99 = ORIENTED_EDGE ( 'NONE', *, *, #232, .T. ) ;
#100 = LINE ( 'NONE', #104, #17 ) ;
#101 = DATE_AND_TIME ( #6, #144 ) ;
#102 = EDGE_LOOP ( 'NONE', ( #190, #261, #241, #105 ) ) ;
#103 = DATE_AND_TIME ( #221, #8 ) ;
#104 = CARTESIAN_POINT ( 'NONE',  ( 9.000000000000000000, 1.102182119232617714E-15, 167.0000000000000000 ) ) ;
#105 = ORIENTED_EDGE ( 'NONE', *, *, #253, .F. ) ;
#106 = VERTEX_POINT ( 'NONE', #63 ) ;
#107 = FACE_OUTER_BOUND ( 'NONE', #246, .T. ) ;
#108 = DIRECTION ( 'NONE',  ( 1.000000000000000000, 0.000000000000000000, 0.000000000000000000 ) ) ;
#109 = AXIS2_PLACEMENT_3D ( 'NONE', #120, #74, #276 ) ;
#110 = CIRCLE ( 'NONE', #269, 12.00000000000000178 ) ;
#111 = CARTESIAN_POINT ( 'NONE',  ( 9.000000000000000000, 1.102182119232617714E-15, 7.200000000000011724 ) ) ;
#112 = VERTEX_POINT ( 'NONE', #209 ) ;
#113 = CC_DESIGN_DATE_AND_TIME_ASSIGNMENT ( #133, #149, ( #218 ) ) ;
#114 = PRODUCT_RELATED_PRODUCT_CATEGORY ( 'detail', '', ( #98 ) ) ;
#115 = DIRECTION ( 'NONE',  ( 1.000000000000000000, 0.000000000000000000, 0.000000000000000000 ) ) ;
#116 = ADVANCED_FACE ( 'NONE', ( #300 ), #186, .T. ) ;
#117 = PERSON_AND_ORGANIZATION_ROLE ( 'design_supplier' ) ;
#118 = CARTESIAN_POINT ( 'NONE',  ( 12.00000000000000178, 1.469576158976824144E-15, 7.000000000000000000 ) ) ;
#119 = CC_DESIGN_APPROVAL ( #167, ( #218 ) ) ;
#120 = CARTESIAN_POINT ( 'NONE',  ( 0.000000000000000000, 0.000000000000000000, 167.0000000000000000 ) ) ;
#121 = CARTESIAN_POINT ( 'NONE',  ( 0.000000000000000000, 0.000000000000000000, 7.000000000000000000 ) ) ;
#122 = DATE_AND_TIME ( #94, #181 ) ;
#123 = FACE_OUTER_BOUND ( 'NONE', #267, .T. ) ;
#124 = SECURITY_CLASSIFICATION_LEVEL ( 'unclassified' ) ;
#125 = AXIS2_PLACEMENT_3D ( 'NONE', #271, #38, #83 ) ;
#126 = ORIENTED_EDGE ( 'NONE', *, *, #253, .T. ) ;
#127 = DIRECTION ( 'NONE',  ( 0.000000000000000000, 0.000000000000000000, 1.000000000000000000 ) ) ;
#128 = PERSON_AND_ORGANIZATION ( #171, #49 ) ;
#129 = EDGE_CURVE ( 'NONE', #195, #112, #110, .T. ) ;
#130 = EDGE_LOOP ( 'NONE', ( #175, #217 ) ) ;
#131 = APPROVAL_ROLE ( '' ) ;
#132 = AXIS2_PLACEMENT_3D ( 'NONE', #212, #92, #115 ) ;
#133 = DATE_AND_TIME ( #283, #285 ) ;
#134 = ORIENTED_EDGE ( 'NONE', *, *, #64, .T. ) ;
#135 = DIRECTION ( 'NONE',  ( 0.000000000000000000, 0.000000000000000000, -1.000000000000000000 ) ) ;
#136 = EDGE_LOOP ( 'NONE', ( #244, #231, #126, #224 ) ) ;
#137 = DIRECTION ( 'NONE',  ( 1.000000000000000000, 0.000000000000000000, -0.000000000000000000 ) ) ;
#138 = AXIS2_PLACEMENT_3D ( 'NONE', #239, #18, #207 ) ;
#139 = CARTESIAN_POINT ( 'NONE',  ( -9.000000000000000000, 0.000000000000000000, 167.0000000000000000 ) ) ;
#140 = ORIENTED_EDGE ( 'NONE', *, *, #69, .T. ) ;
#141 = EDGE_CURVE ( 'NONE', #195, #293, #72, .T. ) ;
#142 = DIRECTION ( 'NONE',  ( 1.000000000000000000, 0.000000000000000000, 0.000000000000000000 ) ) ;
#143 = DIRECTION ( 'NONE',  ( -1.000000000000000000, 1.224646799147353207E-16, 0.000000000000000000 ) ) ;
#144 = LOCAL_TIME ( 11, 36, 56.00000000000000000, #191 ) ;
#145 = CARTESIAN_POINT ( 'NONE',  ( 12.00000000000000178, 1.469576158976824144E-15, 7.000000000000000000 ) ) ;
#146 = PERSON_AND_ORGANIZATION ( #171, #49 ) ;
#147 = CARTESIAN_POINT ( 'NONE',  ( -12.00000000000000178, 0.000000000000000000, 7.000000000000000000 ) ) ;
#148 = APPROVAL_DATE_TIME ( #122, #273 ) ;
#149 = DATE_TIME_ROLE ( 'creation_date' ) ;
#150 = AXIS2_PLACEMENT_3D ( 'NONE', #86, #226, #135 ) ;
#151 = EDGE_CURVE ( 'NONE', #250, #177, #251, .T. ) ;
#152 = ORIENTED_EDGE ( 'NONE', *, *, #194, .T. ) ;
#153 = APPLICATION_CONTEXT ( 'configuration controlled 3d designs of mechanical parts and assemblies' ) ;
#154 = ORIENTED_EDGE ( 'NONE', *, *, #232, .F. ) ;
#155 = EDGE_CURVE ( 'NONE', #288, #250, #66, .T. ) ;
#156 = CIRCLE ( 'NONE', #206, 9.000000000000000000 ) ;
#157 = APPLICATION_PROTOCOL_DEFINITION ( 'international standard', 'config_control_design', 1994, #33 ) ;
#158 = ORIENTED_EDGE ( 'NONE', *, *, #274, .T. ) ;
#159 = CYLINDRICAL_SURFACE ( 'NONE', #125, 9.000000000000000000 ) ;
#160 = CARTESIAN_POINT ( 'NONE',  ( 0.000000000000000000, 0.000000000000000000, 7.200000000000011724 ) ) ;
#161 = CARTESIAN_POINT ( 'NONE',  ( 9.000000000000000000, 1.102182119232617714E-15, 167.0000000000000000 ) ) ;
#162 = ORIENTED_EDGE ( 'NONE', *, *, #69, .F. ) ;
#163 = CIRCLE ( 'NONE', #42, 12.00000000000000178 ) ;
#164 = AXIS2_PLACEMENT_3D ( 'NONE', #234, #25, #46 ) ;
#165 = CIRCLE ( 'NONE', #138, 9.000000000000000000 ) ;
#166 = DIRECTION ( 'NONE',  ( 1.000000000000000000, 0.000000000000000000, -0.000000000000000000 ) ) ;
#167 = APPROVAL ( #219, 'NEURÈENÝ' ) ;
#168 = DIRECTION ( 'NONE',  ( -0.000000000000000000, -0.000000000000000000, -1.000000000000000000 ) ) ;
#169 = CC_DESIGN_PERSON_AND_ORGANIZATION_ASSIGNMENT ( #185, #48, ( #182 ) ) ;
#170 = FACE_OUTER_BOUND ( 'NONE', #102, .T. ) ;
#171 = PERSON ( 'NEURÈENÝ', 'NEURÈENÝ', 'NEURÈENÝ', ('NEURÈENÝ'), ('NEURÈENÝ'), ('NEURÈENÝ') ) ;
#172 = CARTESIAN_POINT ( 'NONE',  ( -9.199999999999999289, 1.126675055215564822E-15, 7.000000000000006217 ) ) ;
#173 = ORIENTED_EDGE ( 'NONE', *, *, #155, .T. ) ;
#174 = AXIS2_PLACEMENT_3D ( 'NONE', #70, #50, #143 ) ;
#175 = ORIENTED_EDGE ( 'NONE', *, *, #5, .T. ) ;
#176 = DIRECTION ( 'NONE',  ( 0.000000000000000000, 0.000000000000000000, 1.000000000000000000 ) ) ;
#177 = VERTEX_POINT ( 'NONE', #68 ) ;
#178 = CIRCLE ( 'NONE', #214, 12.00000000000000178 ) ;
#179 = CARTESIAN_POINT ( 'NONE',  ( 0.000000000000000000, 0.000000000000000000, 167.0000000000000000 ) ) ;
#180 = FACE_OUTER_BOUND ( 'NONE', #199, .T. ) ;
#181 = LOCAL_TIME ( 11, 36, 56.00000000000000000, #304 ) ;
#182 = SECURITY_CLASSIFICATION ( '', '', #124 ) ;
#183 = DIRECTION ( 'NONE',  ( -0.000000000000000000, -0.000000000000000000, -1.000000000000000000 ) ) ;
#184 = DIRECTION ( 'NONE',  ( -0.000000000000000000, -0.000000000000000000, -1.000000000000000000 ) ) ;
#185 = PERSON_AND_ORGANIZATION ( #171, #49 ) ;
#186 = CYLINDRICAL_SURFACE ( 'NONE', #164, 12.00000000000000178 ) ;
#187 = DESIGN_CONTEXT ( 'detailed design', #153, 'design' ) ;
#188 = CYLINDRICAL_SURFACE ( 'NONE', #307, 9.000000000000000000 ) ;
#189 = APPROVAL_PERSON_ORGANIZATION ( #76, #56, #243 ) ;
#190 = ORIENTED_EDGE ( 'NONE', *, *, #129, .F. ) ;
#191 = COORDINATED_UNIVERSAL_TIME_OFFSET ( 1, 0, .AHEAD. ) ;
#192 = APPROVAL_STATUS ( 'not_yet_approved' ) ;
#193 = CIRCLE ( 'NONE', #132, 9.199999999999999289 ) ;
#194 = EDGE_CURVE ( 'NONE', #106, #61, #53, .T. ) ;
#195 = VERTEX_POINT ( 'NONE', #145 ) ;
#196 = APPROVAL_DATE_TIME ( #103, #56 ) ;
#197 = DIRECTION ( 'NONE',  ( 1.000000000000000000, 0.000000000000000000, 0.000000000000000000 ) ) ;
#198 = DIRECTION ( 'NONE',  ( -0.000000000000000000, -0.000000000000000000, -1.000000000000000000 ) ) ;
#199 = EDGE_LOOP ( 'NONE', ( #152, #32 ) ) ;
#200 = ORIENTED_EDGE ( 'NONE', *, *, #274, .F. ) ;
#201 = FACE_BOUND ( 'NONE', #55, .T. ) ;
#202 = DIRECTION ( 'NONE',  ( 1.000000000000000000, 0.000000000000000000, -0.000000000000000000 ) ) ;
#203 = CIRCLE ( 'NONE', #1, 12.00000000000000178 ) ;
#204 = ADVANCED_FACE ( 'NONE', ( #170 ), #236, .T. ) ;
#205 = DIRECTION ( 'NONE',  ( 1.000000000000000000, 0.000000000000000000, 0.000000000000000000 ) ) ;
#206 = AXIS2_PLACEMENT_3D ( 'NONE', #59, #176, #57 ) ;
#207 = DIRECTION ( 'NONE',  ( 1.000000000000000000, 0.000000000000000000, 0.000000000000000000 ) ) ;
#208 = AXIS2_PLACEMENT_3D ( 'NONE', #121, #256, #298 ) ;
#209 = CARTESIAN_POINT ( 'NONE',  ( -12.00000000000000178, 0.000000000000000000, 7.000000000000000000 ) ) ;
#210 = ADVANCED_FACE ( 'NONE', ( #275 ), #258, .F. ) ;
#211 = DIRECTION ( 'NONE',  ( -1.000000000000000000, 0.000000000000000000, 0.000000000000000000 ) ) ;
#212 = CARTESIAN_POINT ( 'NONE',  ( 0.000000000000000000, 0.000000000000000000, 7.000000000000000000 ) ) ;
#213 = SHAPE_DEFINITION_REPRESENTATION ( #2, #290 ) ;
#214 = AXIS2_PLACEMENT_3D ( 'NONE', #65, #16, #205 ) ;
#215 = APPROVAL_ROLE ( '' ) ;
#216 = MANIFOLD_SOLID_BREP ( 'Zaoblit1', #29 ) ;
#217 = ORIENTED_EDGE ( 'NONE', *, *, #129, .T. ) ;
#218 = PRODUCT_DEFINITION ( 'NEZNÁMÝ', '', #21, #187 ) ;
#219 = APPROVAL_STATUS ( 'not_yet_approved' ) ;
#220 = EDGE_LOOP ( 'NONE', ( #228, #43 ) ) ;
#221 = CALENDAR_DATE ( 2022, 7, 7 ) ;
#222 = CC_DESIGN_APPROVAL ( #273, ( #182 ) ) ;
#223 = VECTOR ( 'NONE', #198, 1000.000000000000000 ) ;
#224 = ORIENTED_EDGE ( 'NONE', *, *, #95, .T. ) ;
#225 = DIRECTION ( 'NONE',  ( 0.000000000000000000, 0.000000000000000000, 1.000000000000000000 ) ) ;
#226 = DIRECTION ( 'NONE',  ( 0.000000000000000000, -1.000000000000000000, 0.000000000000000000 ) ) ;
#227 = ADVANCED_FACE ( 'NONE', ( #123 ), #90, .F. ) ;
#228 = ORIENTED_EDGE ( 'NONE', *, *, #95, .F. ) ;
#229 = AXIS2_PLACEMENT_3D ( 'NONE', #238, #22, #166 ) ;
#230 = CARTESIAN_POINT ( 'NONE',  ( -12.00000000000000178, 0.000000000000000000, 0.000000000000000000 ) ) ;
#231 = ORIENTED_EDGE ( 'NONE', *, *, #5, .F. ) ;
#232 = EDGE_CURVE ( 'NONE', #177, #250, #193, .T. ) ;
#233 = DIRECTION ( 'NONE',  ( 1.000000000000000000, 0.000000000000000000, 0.000000000000000000 ) ) ;
#234 = CARTESIAN_POINT ( 'NONE',  ( 0.000000000000000000, 0.000000000000000000, 7.000000000000000000 ) ) ;
#235 = ADVANCED_FACE ( 'NONE', ( #96 ), #188, .T. ) ;
#236 = CYLINDRICAL_SURFACE ( 'NONE', #52, 12.00000000000000178 ) ;
#237 = AXIS2_PLACEMENT_3D ( 'NONE', #248, #13, #137 ) ;
#238 = CARTESIAN_POINT ( 'NONE',  ( 0.000000000000000000, 0.000000000000000000, 0.000000000000000000 ) ) ;
#239 = CARTESIAN_POINT ( 'NONE',  ( 0.000000000000000000, 0.000000000000000000, 7.200000000000011724 ) ) ;
#240 =( GEOMETRIC_REPRESENTATION_CONTEXT ( 3 ) GLOBAL_UNCERTAINTY_ASSIGNED_CONTEXT ( ( #47 ) ) GLOBAL_UNIT_ASSIGNED_CONTEXT ( ( #11, #10, #36 ) ) REPRESENTATION_CONTEXT ( 'NONE', 'WORKASPACE' ) );
#241 = ORIENTED_EDGE ( 'NONE', *, *, #262, .T. ) ;
#242 = CARTESIAN_POINT ( 'NONE',  ( -9.000000000000000000, 0.000000000000000000, 7.200000000000011724 ) ) ;
#243 = APPROVAL_ROLE ( '' ) ;
#244 = ORIENTED_EDGE ( 'NONE', *, *, #141, .F. ) ;
#245 = COORDINATED_UNIVERSAL_TIME_OFFSET ( 1, 0, .AHEAD. ) ;
#246 = EDGE_LOOP ( 'NONE', ( #297, #263, #140, #37 ) ) ;
#247 = PLANE ( 'NONE',  #9 ) ;
#248 = CARTESIAN_POINT ( 'NONE',  ( 0.000000000000000000, 0.000000000000000000, 7.000000000000000000 ) ) ;
#249 = DIRECTION ( 'NONE',  ( 0.000000000000000000, 0.000000000000000000, 1.000000000000000000 ) ) ;
#250 = VERTEX_POINT ( 'NONE', #172 ) ;
#251 = CIRCLE ( 'NONE', #208, 9.199999999999999289 ) ;
#252 = CC_DESIGN_PERSON_AND_ORGANIZATION_ASSIGNMENT ( #289, #97, ( #21 ) ) ;
#253 = EDGE_CURVE ( 'NONE', #112, #87, #303, .T. ) ;
#254 = CARTESIAN_POINT ( 'NONE',  ( 0.000000000000000000, 0.000000000000000000, 0.000000000000000000 ) ) ;
#255 = DIRECTION ( 'NONE',  ( -1.000000000000000000, 0.000000000000000000, 0.000000000000000000 ) ) ;
#256 = DIRECTION ( 'NONE',  ( -0.000000000000000000, -0.000000000000000000, -1.000000000000000000 ) ) ;
#257 = EDGE_CURVE ( 'NONE', #75, #288, #165, .T. ) ;
#258 = PLANE ( 'NONE',  #229 ) ;
#259 = VECTOR ( 'NONE', #93, 1000.000000000000000 ) ;
#260 = AXIS2_PLACEMENT_3D ( 'NONE', #160, #249, #108 ) ;
#261 = ORIENTED_EDGE ( 'NONE', *, *, #141, .T. ) ;
#262 = EDGE_CURVE ( 'NONE', #293, #87, #163, .T. ) ;
#263 = ORIENTED_EDGE ( 'NONE', *, *, #257, .F. ) ;
#264 = APPROVAL_DATE_TIME ( #101, #167 ) ;
#265 = PERSON_AND_ORGANIZATION ( #171, #49 ) ;
#266 = APPROVAL_PERSON_ORGANIZATION ( #146, #273, #215 ) ;
#267 = EDGE_LOOP ( 'NONE', ( #200, #173, #154, #162 ) ) ;
#268 = DIRECTION ( 'NONE',  ( 0.000000000000000000, 0.000000000000000000, 1.000000000000000000 ) ) ;
#269 = AXIS2_PLACEMENT_3D ( 'NONE', #19, #51, #278 ) ;
#270 = DIRECTION ( 'NONE',  ( 1.000000000000000000, 0.000000000000000000, 0.000000000000000000 ) ) ;
#271 = CARTESIAN_POINT ( 'NONE',  ( 0.000000000000000000, 0.000000000000000000, 167.0000000000000000 ) ) ;
#272 = APPROVAL_PERSON_ORGANIZATION ( #128, #167, #131 ) ;
#273 = APPROVAL ( #302, 'NEURÈENÝ' ) ;
#274 = EDGE_CURVE ( 'NONE', #288, #75, #156, .T. ) ;
#275 = FACE_OUTER_BOUND ( 'NONE', #220, .T. ) ;
#276 = DIRECTION ( 'NONE',  ( 1.000000000000000000, 0.000000000000000000, 0.000000000000000000 ) ) ;
#277 = COORDINATED_UNIVERSAL_TIME_OFFSET ( 1, 0, .AHEAD. ) ;
#278 = DIRECTION ( 'NONE',  ( 1.000000000000000000, 0.000000000000000000, 0.000000000000000000 ) ) ;
#279 = CC_DESIGN_DATE_AND_TIME_ASSIGNMENT ( #281, #306, ( #182 ) ) ;
#280 = CARTESIAN_POINT ( 'NONE',  ( 0.000000000000000000, 0.000000000000000000, 167.0000000000000000 ) ) ;
#281 = DATE_AND_TIME ( #71, #26 ) ;
#282 = ORIENTED_EDGE ( 'NONE', *, *, #194, .F. ) ;
#283 = CALENDAR_DATE ( 2022, 7, 7 ) ;
#284 = EDGE_CURVE ( 'NONE', #61, #75, #100, .T. ) ;
#285 = LOCAL_TIME ( 11, 36, 56.00000000000000000, #245 ) ;
#286 = CIRCLE ( 'NONE', #44, 9.000000000000000000 ) ;
#287 = DIRECTION ( 'NONE',  ( -0.000000000000000000, -0.000000000000000000, -1.000000000000000000 ) ) ;
#288 = VERTEX_POINT ( 'NONE', #242 ) ;
#289 = PERSON_AND_ORGANIZATION ( #171, #49 ) ;
#290 = ADVANCED_BREP_SHAPE_REPRESENTATION ( '2e28', ( #216, #73 ), #240 ) ;
#291 = MECHANICAL_CONTEXT ( 'NONE', #33, 'mechanical' ) ;
#292 = FACE_OUTER_BOUND ( 'NONE', #3, .T. ) ;
#293 = VERTEX_POINT ( 'NONE', #79 ) ;
#294 = ORIENTED_EDGE ( 'NONE', *, *, #84, .F. ) ;
#295 = FACE_OUTER_BOUND ( 'NONE', #130, .T. ) ;
#296 = DIRECTION ( 'NONE',  ( 0.000000000000000000, 0.000000000000000000, 1.000000000000000000 ) ) ;
#297 = ORIENTED_EDGE ( 'NONE', *, *, #155, .F. ) ;
#298 = DIRECTION ( 'NONE',  ( 1.000000000000000000, 0.000000000000000000, 0.000000000000000000 ) ) ;
#299 = VECTOR ( 'NONE', #184, 1000.000000000000000 ) ;
#300 = FACE_OUTER_BOUND ( 'NONE', #136, .T. ) ;
#301 = CC_DESIGN_PERSON_AND_ORGANIZATION_ASSIGNMENT ( #265, #60, ( #218 ) ) ;
#302 = APPROVAL_STATUS ( 'not_yet_approved' ) ;
#303 = LINE ( 'NONE', #147, #259 ) ;
#304 = COORDINATED_UNIVERSAL_TIME_OFFSET ( 1, 0, .AHEAD. ) ;
#305 = DIRECTION ( 'NONE',  ( 0.000000000000000000, 0.000000000000000000, 1.000000000000000000 ) ) ;
#306 = DATE_TIME_ROLE ( 'classification_date' ) ;
#307 = AXIS2_PLACEMENT_3D ( 'NONE', #280, #183, #211 ) ;
ENDSEC;
END-ISO-10303-21;
