ISO-10303-21;
HEADER;
FILE_DESCRIPTION (( 'STEP AP203' ),
    '1' );
FILE_NAME ('3e55.STEP',
    '2023-02-12T11:07:01',
    ( '' ),
    ( '' ),
    'SwSTEP 2.0',
    'SolidWorks 2019',
    '' );
FILE_SCHEMA (( 'CONFIG_CONTROL_DESIGN' ));
ENDSEC;

DATA;
#1 = ORIENTED_EDGE ( 'NONE', *, *, #34, .T. ) ;
#2 = ORIENTED_EDGE ( 'NONE', *, *, #94, .T. ) ;
#3 = PERSON_AND_ORGANIZATION_ROLE ( 'creator' ) ;
#4 = FACE_OUTER_BOUND ( 'NONE', #221, .T. ) ;
#5 = PERSON_AND_ORGANIZATION_ROLE ( 'creator' ) ;
#6 = DIRECTION ( 'NONE',  ( -0.000000000000000000, -0.000000000000000000, -1.000000000000000000 ) ) ;
#7 = DATE_AND_TIME ( #136, #190 ) ;
#8 = FACE_OUTER_BOUND ( 'NONE', #225, .T. ) ;
#9 = PRODUCT_DEFINITION_FORMATION_WITH_SPECIFIED_SOURCE ( 'LIBOVOLNÝ', '', #110, .NOT_KNOWN. ) ;
#10 = CC_DESIGN_APPROVAL ( #158, ( #172 ) ) ;
#11 = EDGE_LOOP ( 'NONE', ( #106, #146, #127, #91 ) ) ;
#12 = VECTOR ( 'NONE', #30, 1000.000000000000000 ) ;
#13 = CARTESIAN_POINT ( 'NONE',  ( 8.000000000000000000, 9.797174393178825657E-16, 5.000000000000000000 ) ) ;
#14 = CARTESIAN_POINT ( 'NONE',  ( -8.000000000000000000, 0.000000000000000000, 5.000000000000000000 ) ) ;
#15 = AXIS2_PLACEMENT_3D ( 'NONE', #251, #129, #96 ) ;
#16 =( NAMED_UNIT ( * ) SI_UNIT ( $, .STERADIAN. ) SOLID_ANGLE_UNIT ( ) );
#17 = LINE ( 'NONE', #14, #132 ) ;
#18 = APPROVAL ( #121, 'NEURÈENÝ' ) ;
#19 = DIRECTION ( 'NONE',  ( 1.000000000000000000, 0.000000000000000000, 0.000000000000000000 ) ) ;
#20 = EDGE_CURVE ( 'NONE', #119, #170, #70, .T. ) ;
#21 = VERTEX_POINT ( 'NONE', #230 ) ;
#22 = EDGE_LOOP ( 'NONE', ( #224, #181 ) ) ;
#23 = APPROVAL_DATE_TIME ( #103, #212 ) ;
#24 = DATE_TIME_ROLE ( 'creation_date' ) ;
#25 = ORIENTED_EDGE ( 'NONE', *, *, #219, .T. ) ;
#26 = DIRECTION ( 'NONE',  ( -1.000000000000000000, 0.000000000000000000, 0.000000000000000000 ) ) ;
#27 = CARTESIAN_POINT ( 'NONE',  ( 0.000000000000000000, 0.000000000000000000, 5.000000000000000000 ) ) ;
#28 = APPROVAL_STATUS ( 'not_yet_approved' ) ;
#29 = ADVANCED_FACE ( 'NONE', ( #4 ), #92, .T. ) ;
#30 = DIRECTION ( 'NONE',  ( -0.000000000000000000, -0.000000000000000000, -1.000000000000000000 ) ) ;
#31 = CARTESIAN_POINT ( 'NONE',  ( -5.500000000000000000, 0.000000000000000000, 1000.000000000000000 ) ) ;
#32 = FACE_OUTER_BOUND ( 'NONE', #22, .T. ) ;
#33 = CIRCLE ( 'NONE', #210, 5.500000000000000000 ) ;
#34 = EDGE_CURVE ( 'NONE', #186, #159, #188, .T. ) ;
#35 = CARTESIAN_POINT ( 'NONE',  ( 0.000000000000000000, 0.000000000000000000, 5.000000000000000000 ) ) ;
#36 = AXIS2_PLACEMENT_3D ( 'NONE', #152, #37, #173 ) ;
#37 = DIRECTION ( 'NONE',  ( 0.000000000000000000, 0.000000000000000000, 1.000000000000000000 ) ) ;
#38 = DIRECTION ( 'NONE',  ( 0.000000000000000000, 0.000000000000000000, 1.000000000000000000 ) ) ;
#39 = CIRCLE ( 'NONE', #100, 5.500000000000000000 ) ;
#40 = PERSON_AND_ORGANIZATION ( #223, #81 ) ;
#41 = ORIENTED_EDGE ( 'NONE', *, *, #20, .F. ) ;
#42 = PERSON_AND_ORGANIZATION ( #223, #81 ) ;
#43 = SECURITY_CLASSIFICATION_LEVEL ( 'unclassified' ) ;
#44 = PERSON_AND_ORGANIZATION_ROLE ( 'classification_officer' ) ;
#45 = COORDINATED_UNIVERSAL_TIME_OFFSET ( 1, 0, .AHEAD. ) ;
#46 = CARTESIAN_POINT ( 'NONE',  ( 0.000000000000000000, 0.000000000000000000, 0.000000000000000000 ) ) ;
#47 = APPROVAL_PERSON_ORGANIZATION ( #227, #158, #184 ) ;
#48 = ADVANCED_FACE ( 'NONE', ( #32 ), #88, .T. ) ;
#49 = DATE_AND_TIME ( #165, #98 ) ;
#50 = DIRECTION ( 'NONE',  ( -1.000000000000000000, 0.000000000000000000, 0.000000000000000000 ) ) ;
#51 = CARTESIAN_POINT ( 'NONE',  ( 5.500000000000000000, 6.735557395310441037E-16, 1000.000000000000000 ) ) ;
#52 = ORIENTED_EDGE ( 'NONE', *, *, #138, .F. ) ;
#53 = DIRECTION ( 'NONE',  ( -1.000000000000000000, 0.000000000000000000, 0.000000000000000000 ) ) ;
#54 = EDGE_CURVE ( 'NONE', #60, #186, #187, .T. ) ;
#55 = DIRECTION ( 'NONE',  ( 1.000000000000000000, 0.000000000000000000, 0.000000000000000000 ) ) ;
#56 = DIRECTION ( 'NONE',  ( 1.000000000000000000, 0.000000000000000000, 0.000000000000000000 ) ) ;
#57 = ADVANCED_FACE ( 'NONE', ( #8 ), #206, .T. ) ;
#58 = CIRCLE ( 'NONE', #235, 8.000000000000000000 ) ;
#59 = CC_DESIGN_PERSON_AND_ORGANIZATION_ASSIGNMENT ( #40, #194, ( #110 ) ) ;
#60 = VERTEX_POINT ( 'NONE', #93 ) ;
#61 = CALENDAR_DATE ( 2023, 12, 2 ) ;
#62 = ORIENTED_EDGE ( 'NONE', *, *, #154, .T. ) ;
#63 = CC_DESIGN_DATE_AND_TIME_ASSIGNMENT ( #7, #24, ( #172 ) ) ;
#64 = DATE_TIME_ROLE ( 'classification_date' ) ;
#65 = LOCAL_TIME ( 12, 7, 1.000000000000000000, #45 ) ;
#66 = ORIENTED_EDGE ( 'NONE', *, *, #174, .T. ) ;
#67 = AXIS2_PLACEMENT_3D ( 'NONE', #27, #104, #50 ) ;
#68 = DIRECTION ( 'NONE',  ( 0.000000000000000000, 0.000000000000000000, 1.000000000000000000 ) ) ;
#69 = ORIENTED_EDGE ( 'NONE', *, *, #94, .F. ) ;
#70 = LINE ( 'NONE', #31, #12 ) ;
#71 = EDGE_LOOP ( 'NONE', ( #208, #200, #1, #108 ) ) ;
#72 = DIRECTION ( 'NONE',  ( 1.000000000000000000, 0.000000000000000000, 0.000000000000000000 ) ) ;
#73 = CARTESIAN_POINT ( 'NONE',  ( 0.000000000000000000, 0.000000000000000000, 5.000000000000000000 ) ) ;
#74 = AXIS2_PLACEMENT_3D ( 'NONE', #122, #145, #164 ) ;
#75 = CARTESIAN_POINT ( 'NONE',  ( 0.000000000000000000, 0.000000000000000000, 1000.000000000000000 ) ) ;
#76 = EDGE_CURVE ( 'NONE', #119, #80, #112, .T. ) ;
#77 = LOCAL_TIME ( 12, 7, 1.000000000000000000, #161 ) ;
#78 = DIRECTION ( 'NONE',  ( -0.000000000000000000, -0.000000000000000000, -1.000000000000000000 ) ) ;
#79 = VECTOR ( 'NONE', #6, 1000.000000000000000 ) ;
#80 = VERTEX_POINT ( 'NONE', #51 ) ;
#81 = ORGANIZATION ( 'NEURÈENÝ', 'NEURÈENÝ', '' ) ;
#82 = DIRECTION ( 'NONE',  ( -0.000000000000000000, -0.000000000000000000, -1.000000000000000000 ) ) ;
#83 = CC_DESIGN_PERSON_AND_ORGANIZATION_ASSIGNMENT ( #197, #3, ( #9 ) ) ;
#84 = APPROVAL_ROLE ( '' ) ;
#85 = CALENDAR_DATE ( 2023, 12, 2 ) ;
#86 = VECTOR ( 'NONE', #252, 1000.000000000000000 ) ;
#87 = APPROVAL_STATUS ( 'not_yet_approved' ) ;
#88 = PLANE ( 'NONE',  #139 ) ;
#89 = CARTESIAN_POINT ( 'NONE',  ( 0.000000000000000000, 0.000000000000000000, 0.000000000000000000 ) ) ;
#90 = DATE_AND_TIME ( #61, #77 ) ;
#91 = ORIENTED_EDGE ( 'NONE', *, *, #138, .T. ) ;
#92 = CYLINDRICAL_SURFACE ( 'NONE', #157, 5.500000000000000000 ) ;
#93 = CARTESIAN_POINT ( 'NONE',  ( 8.000000000000000000, 9.797174393178825657E-16, 5.000000000000000000 ) ) ;
#94 = EDGE_CURVE ( 'NONE', #21, #170, #39, .T. ) ;
#95 = CARTESIAN_POINT ( 'NONE',  ( -5.500000000000000000, 0.000000000000000000, 5.000000000000000000 ) ) ;
#96 = DIRECTION ( 'NONE',  ( 1.000000000000000000, 0.000000000000000000, 0.000000000000000000 ) ) ;
#97 = ADVANCED_FACE ( 'NONE', ( #140 ), #123, .T. ) ;
#98 = LOCAL_TIME ( 12, 7, 1.000000000000000000, #237 ) ;
#99 = ORIENTED_EDGE ( 'NONE', *, *, #34, .F. ) ;
#100 = AXIS2_PLACEMENT_3D ( 'NONE', #171, #68, #126 ) ;
#101 = COORDINATED_UNIVERSAL_TIME_OFFSET ( 1, 0, .AHEAD. ) ;
#102 = CARTESIAN_POINT ( 'NONE',  ( 0.000000000000000000, 0.000000000000000000, 1000.000000000000000 ) ) ;
#103 = DATE_AND_TIME ( #85, #147 ) ;
#104 = DIRECTION ( 'NONE',  ( -0.000000000000000000, -0.000000000000000000, -1.000000000000000000 ) ) ;
#105 = CALENDAR_DATE ( 2023, 12, 2 ) ;
#106 = ORIENTED_EDGE ( 'NONE', *, *, #178, .F. ) ;
#107 = CC_DESIGN_SECURITY_CLASSIFICATION ( #143, ( #9 ) ) ;
#108 = ORIENTED_EDGE ( 'NONE', *, *, #219, .F. ) ;
#109 = ADVANCED_FACE ( 'NONE', ( #183 ), #228, .F. ) ;
#110 = PRODUCT ( '3e55', '3e55', '', ( #131 ) ) ;
#111 = DIRECTION ( 'NONE',  ( 1.000000000000000000, 0.000000000000000000, -0.000000000000000000 ) ) ;
#112 = CIRCLE ( 'NONE', #166, 5.500000000000000000 ) ;
#113 = APPLICATION_PROTOCOL_DEFINITION ( 'international standard', 'config_control_design', 1994, #238 ) ;
#114 = UNCERTAINTY_MEASURE_WITH_UNIT (LENGTH_MEASURE( 1.000000000000000082E-05 ), #193, 'distance_accuracy_value', 'NONE');
#115 = DIRECTION ( 'NONE',  ( 0.000000000000000000, 0.000000000000000000, 1.000000000000000000 ) ) ;
#116 = CARTESIAN_POINT ( 'NONE',  ( 8.000000000000000000, 9.797174393178825657E-16, 0.000000000000000000 ) ) ;
#117 = PLANE ( 'NONE',  #36 ) ;
#118 = FACE_BOUND ( 'NONE', #167, .T. ) ;
#119 = VERTEX_POINT ( 'NONE', #176 ) ;
#120 = SHAPE_DEFINITION_REPRESENTATION ( #196, #155 ) ;
#121 = APPROVAL_STATUS ( 'not_yet_approved' ) ;
#122 = CARTESIAN_POINT ( 'NONE',  ( 0.000000000000000000, 0.000000000000000000, 5.000000000000000000 ) ) ;
#123 = CYLINDRICAL_SURFACE ( 'NONE', #67, 8.000000000000000000 ) ;
#124 = DIRECTION ( 'NONE',  ( -0.000000000000000000, -0.000000000000000000, -1.000000000000000000 ) ) ;
#125 = CC_DESIGN_PERSON_AND_ORGANIZATION_ASSIGNMENT ( #220, #180, ( #9 ) ) ;
#126 = DIRECTION ( 'NONE',  ( 1.000000000000000000, 0.000000000000000000, 0.000000000000000000 ) ) ;
#127 = ORIENTED_EDGE ( 'NONE', *, *, #20, .T. ) ;
#128 = DIRECTION ( 'NONE',  ( 1.000000000000000000, 0.000000000000000000, -0.000000000000000000 ) ) ;
#129 = DIRECTION ( 'NONE',  ( 0.000000000000000000, 0.000000000000000000, 1.000000000000000000 ) ) ;
#130 = CARTESIAN_POINT ( 'NONE',  ( -8.000000000000000000, 0.000000000000000000, 5.000000000000000000 ) ) ;
#131 = MECHANICAL_CONTEXT ( 'NONE', #238, 'mechanical' ) ;
#132 = VECTOR ( 'NONE', #82, 1000.000000000000000 ) ;
#133 = EDGE_CURVE ( 'NONE', #80, #119, #33, .T. ) ;
#134 = MANIFOLD_SOLID_BREP ( 'Pøidat vysunutím3', #192 ) ;
#135 = DATE_AND_TIME ( #105, #65 ) ;
#136 = CALENDAR_DATE ( 2023, 12, 2 ) ;
#137 = ORIENTED_EDGE ( 'NONE', *, *, #54, .F. ) ;
#138 = EDGE_CURVE ( 'NONE', #170, #21, #241, .T. ) ;
#139 = AXIS2_PLACEMENT_3D ( 'NONE', #185, #245, #111 ) ;
#140 = FACE_OUTER_BOUND ( 'NONE', #71, .T. ) ;
#141 = DESIGN_CONTEXT ( 'detailed design', #234, 'design' ) ;
#142 = PERSON_AND_ORGANIZATION ( #223, #81 ) ;
#143 = SECURITY_CLASSIFICATION ( '', '', #43 ) ;
#144 = DIRECTION ( 'NONE',  ( 1.000000000000000000, 0.000000000000000000, 0.000000000000000000 ) ) ;
#145 = DIRECTION ( 'NONE',  ( -0.000000000000000000, -0.000000000000000000, -1.000000000000000000 ) ) ;
#146 = ORIENTED_EDGE ( 'NONE', *, *, #76, .F. ) ;
#147 = LOCAL_TIME ( 12, 7, 1.000000000000000000, #163 ) ;
#148 = ORIENTED_EDGE ( 'NONE', *, *, #182, .F. ) ;
#149 = DIRECTION ( 'NONE',  ( 0.000000000000000000, 0.000000000000000000, 1.000000000000000000 ) ) ;
#150 = CC_DESIGN_PERSON_AND_ORGANIZATION_ASSIGNMENT ( #42, #5, ( #172 ) ) ;
#151 =( NAMED_UNIT ( * ) PLANE_ANGLE_UNIT ( ) SI_UNIT ( $, .RADIAN. ) );
#152 = CARTESIAN_POINT ( 'NONE',  ( 0.000000000000000000, 0.000000000000000000, 5.000000000000000000 ) ) ;
#153 = APPROVAL_PERSON_ORGANIZATION ( #142, #212, #201 ) ;
#154 = EDGE_CURVE ( 'NONE', #60, #162, #58, .T. ) ;
#155 = ADVANCED_BREP_SHAPE_REPRESENTATION ( '3e55', ( #134, #226 ), #222 ) ;
#156 = CARTESIAN_POINT ( 'NONE',  ( 5.500000000000000000, 6.735557395310441037E-16, 1000.000000000000000 ) ) ;
#157 = AXIS2_PLACEMENT_3D ( 'NONE', #248, #124, #26 ) ;
#158 = APPROVAL ( #28, 'NEURÈENÝ' ) ;
#159 = VERTEX_POINT ( 'NONE', #189 ) ;
#160 = LINE ( 'NONE', #156, #86 ) ;
#161 = COORDINATED_UNIVERSAL_TIME_OFFSET ( 1, 0, .AHEAD. ) ;
#162 = VERTEX_POINT ( 'NONE', #130 ) ;
#163 = COORDINATED_UNIVERSAL_TIME_OFFSET ( 1, 0, .AHEAD. ) ;
#164 = DIRECTION ( 'NONE',  ( -1.000000000000000000, 0.000000000000000000, 0.000000000000000000 ) ) ;
#165 = CALENDAR_DATE ( 2023, 12, 2 ) ;
#166 = AXIS2_PLACEMENT_3D ( 'NONE', #102, #229, #72 ) ;
#167 = EDGE_LOOP ( 'NONE', ( #52, #69 ) ) ;
#168 = AXIS2_PLACEMENT_3D ( 'NONE', #215, #115, #231 ) ;
#169 = ORIENTED_EDGE ( 'NONE', *, *, #174, .F. ) ;
#170 = VERTEX_POINT ( 'NONE', #95 ) ;
#171 = CARTESIAN_POINT ( 'NONE',  ( 0.000000000000000000, 0.000000000000000000, 5.000000000000000000 ) ) ;
#172 = PRODUCT_DEFINITION ( 'NEZNÁMÝ', '', #9, #141 ) ;
#173 = DIRECTION ( 'NONE',  ( 1.000000000000000000, 0.000000000000000000, -0.000000000000000000 ) ) ;
#174 = EDGE_CURVE ( 'NONE', #162, #60, #253, .T. ) ;
#175 = CARTESIAN_POINT ( 'NONE',  ( 0.000000000000000000, 0.000000000000000000, 0.000000000000000000 ) ) ;
#176 = CARTESIAN_POINT ( 'NONE',  ( -5.500000000000000000, 0.000000000000000000, 1000.000000000000000 ) ) ;
#177 = ORIENTED_EDGE ( 'NONE', *, *, #133, .F. ) ;
#178 = EDGE_CURVE ( 'NONE', #80, #21, #160, .T. ) ;
#179 = APPROVAL_DATE_TIME ( #90, #18 ) ;
#180 = PERSON_AND_ORGANIZATION_ROLE ( 'design_supplier' ) ;
#181 = ORIENTED_EDGE ( 'NONE', *, *, #133, .T. ) ;
#182 = EDGE_CURVE ( 'NONE', #159, #186, #195, .T. ) ;
#183 = FACE_OUTER_BOUND ( 'NONE', #203, .T. ) ;
#184 = APPROVAL_ROLE ( '' ) ;
#185 = CARTESIAN_POINT ( 'NONE',  ( 0.000000000000000000, 0.000000000000000000, 1000.000000000000000 ) ) ;
#186 = VERTEX_POINT ( 'NONE', #116 ) ;
#187 = LINE ( 'NONE', #13, #79 ) ;
#188 = CIRCLE ( 'NONE', #232, 8.000000000000000000 ) ;
#189 = CARTESIAN_POINT ( 'NONE',  ( -8.000000000000000000, 0.000000000000000000, 0.000000000000000000 ) ) ;
#190 = LOCAL_TIME ( 12, 7, 1.000000000000000000, #101 ) ;
#191 = CARTESIAN_POINT ( 'NONE',  ( 0.000000000000000000, 0.000000000000000000, 1000.000000000000000 ) ) ;
#192 = CLOSED_SHELL ( 'NONE', ( #29, #97, #57, #246, #109, #217, #48 ) ) ;
#193 =( LENGTH_UNIT ( ) NAMED_UNIT ( * ) SI_UNIT ( .MILLI., .METRE. ) );
#194 = PERSON_AND_ORGANIZATION_ROLE ( 'design_owner' ) ;
#195 = CIRCLE ( 'NONE', #15, 8.000000000000000000 ) ;
#196 = PRODUCT_DEFINITION_SHAPE ( 'NONE', 'NONE',  #172 ) ;
#197 = PERSON_AND_ORGANIZATION ( #223, #81 ) ;
#198 = CC_DESIGN_PERSON_AND_ORGANIZATION_ASSIGNMENT ( #239, #44, ( #143 ) ) ;
#199 = APPLICATION_PROTOCOL_DEFINITION ( 'international standard', 'config_control_design', 1994, #234 ) ;
#200 = ORIENTED_EDGE ( 'NONE', *, *, #54, .T. ) ;
#201 = APPROVAL_ROLE ( '' ) ;
#202 = DIRECTION ( 'NONE',  ( 0.000000000000000000, 0.000000000000000000, 1.000000000000000000 ) ) ;
#203 = EDGE_LOOP ( 'NONE', ( #148, #99 ) ) ;
#204 = PERSON_AND_ORGANIZATION ( #223, #81 ) ;
#205 = DIRECTION ( 'NONE',  ( 0.000000000000000000, 0.000000000000000000, 1.000000000000000000 ) ) ;
#206 = CYLINDRICAL_SURFACE ( 'NONE', #74, 8.000000000000000000 ) ;
#207 = CC_DESIGN_APPROVAL ( #18, ( #9 ) ) ;
#208 = ORIENTED_EDGE ( 'NONE', *, *, #154, .F. ) ;
#209 = DIRECTION ( 'NONE',  ( 1.000000000000000000, 0.000000000000000000, 0.000000000000000000 ) ) ;
#210 = AXIS2_PLACEMENT_3D ( 'NONE', #191, #149, #209 ) ;
#211 = CYLINDRICAL_SURFACE ( 'NONE', #249, 5.500000000000000000 ) ;
#212 = APPROVAL ( #87, 'NEURÈENÝ' ) ;
#213 = CC_DESIGN_APPROVAL ( #212, ( #143 ) ) ;
#214 = FACE_OUTER_BOUND ( 'NONE', #11, .T. ) ;
#215 = CARTESIAN_POINT ( 'NONE',  ( 0.000000000000000000, 0.000000000000000000, 5.000000000000000000 ) ) ;
#216 = APPROVAL_PERSON_ORGANIZATION ( #204, #18, #84 ) ;
#217 = ADVANCED_FACE ( 'NONE', ( #214 ), #211, .T. ) ;
#218 = AXIS2_PLACEMENT_3D ( 'NONE', #89, #205, #128 ) ;
#219 = EDGE_CURVE ( 'NONE', #162, #159, #17, .T. ) ;
#220 = PERSON_AND_ORGANIZATION ( #223, #81 ) ;
#221 = EDGE_LOOP ( 'NONE', ( #177, #243, #2, #41 ) ) ;
#222 =( GEOMETRIC_REPRESENTATION_CONTEXT ( 3 ) GLOBAL_UNCERTAINTY_ASSIGNED_CONTEXT ( ( #114 ) ) GLOBAL_UNIT_ASSIGNED_CONTEXT ( ( #193, #151, #16 ) ) REPRESENTATION_CONTEXT ( 'NONE', 'WORKASPACE' ) );
#223 = PERSON ( 'NEURÈENÝ', 'NEURÈENÝ', 'NEURÈENÝ', ('NEURÈENÝ'), ('NEURÈENÝ'), ('NEURÈENÝ') ) ;
#224 = ORIENTED_EDGE ( 'NONE', *, *, #76, .T. ) ;
#225 = EDGE_LOOP ( 'NONE', ( #137, #169, #25, #247 ) ) ;
#226 = AXIS2_PLACEMENT_3D ( 'NONE', #175, #233, #56 ) ;
#227 = PERSON_AND_ORGANIZATION ( #223, #81 ) ;
#228 = PLANE ( 'NONE',  #218 ) ;
#229 = DIRECTION ( 'NONE',  ( 0.000000000000000000, 0.000000000000000000, 1.000000000000000000 ) ) ;
#230 = CARTESIAN_POINT ( 'NONE',  ( 5.500000000000000000, 6.735557395310441037E-16, 5.000000000000000000 ) ) ;
#231 = DIRECTION ( 'NONE',  ( 1.000000000000000000, 0.000000000000000000, 0.000000000000000000 ) ) ;
#232 = AXIS2_PLACEMENT_3D ( 'NONE', #46, #202, #144 ) ;
#233 = DIRECTION ( 'NONE',  ( 0.000000000000000000, 0.000000000000000000, 1.000000000000000000 ) ) ;
#234 = APPLICATION_CONTEXT ( 'configuration controlled 3d designs of mechanical parts and assemblies' ) ;
#235 = AXIS2_PLACEMENT_3D ( 'NONE', #35, #38, #55 ) ;
#236 = AXIS2_PLACEMENT_3D ( 'NONE', #73, #250, #19 ) ;
#237 = COORDINATED_UNIVERSAL_TIME_OFFSET ( 1, 0, .AHEAD. ) ;
#238 = APPLICATION_CONTEXT ( 'configuration controlled 3d designs of mechanical parts and assemblies' ) ;
#239 = PERSON_AND_ORGANIZATION ( #223, #81 ) ;
#240 = APPROVAL_DATE_TIME ( #135, #158 ) ;
#241 = CIRCLE ( 'NONE', #168, 5.500000000000000000 ) ;
#242 = PRODUCT_RELATED_PRODUCT_CATEGORY ( 'detail', '', ( #110 ) ) ;
#243 = ORIENTED_EDGE ( 'NONE', *, *, #178, .T. ) ;
#244 = EDGE_LOOP ( 'NONE', ( #66, #62 ) ) ;
#245 = DIRECTION ( 'NONE',  ( 0.000000000000000000, 0.000000000000000000, 1.000000000000000000 ) ) ;
#246 = ADVANCED_FACE ( 'NONE', ( #118, #254 ), #117, .T. ) ;
#247 = ORIENTED_EDGE ( 'NONE', *, *, #182, .T. ) ;
#248 = CARTESIAN_POINT ( 'NONE',  ( 0.000000000000000000, 0.000000000000000000, 1000.000000000000000 ) ) ;
#249 = AXIS2_PLACEMENT_3D ( 'NONE', #75, #78, #53 ) ;
#250 = DIRECTION ( 'NONE',  ( 0.000000000000000000, 0.000000000000000000, 1.000000000000000000 ) ) ;
#251 = CARTESIAN_POINT ( 'NONE',  ( 0.000000000000000000, 0.000000000000000000, 0.000000000000000000 ) ) ;
#252 = DIRECTION ( 'NONE',  ( -0.000000000000000000, -0.000000000000000000, -1.000000000000000000 ) ) ;
#253 = CIRCLE ( 'NONE', #236, 8.000000000000000000 ) ;
#254 = FACE_OUTER_BOUND ( 'NONE', #244, .T. ) ;
#255 = CC_DESIGN_DATE_AND_TIME_ASSIGNMENT ( #49, #64, ( #143 ) ) ;
ENDSEC;
END-ISO-10303-21;
