ISO-10303-21;
HEADER;
FILE_DESCRIPTION (( 'STEP AP203' ),
    '1' );
FILE_NAME ('6187.STEP',
    '2023-02-12T12:42:32',
    ( '' ),
    ( '' ),
    'SwSTEP 2.0',
    'SolidWorks 2019',
    '' );
FILE_SCHEMA (( 'CONFIG_CONTROL_DESIGN' ));
ENDSEC;

DATA;
#1 = CC_DESIGN_PERSON_AND_ORGANIZATION_ASSIGNMENT ( #92, #70, ( #14 ) ) ;
#2 = VERTEX_POINT ( 'NONE', #233 ) ;
#3 = MANIFOLD_SOLID_BREP ( 'Pøidat vysunutím3', #215 ) ;
#4 = CYLINDRICAL_SURFACE ( 'NONE', #104, 3.500000000000000444 ) ;
#5 = AXIS2_PLACEMENT_3D ( 'NONE', #200, #219, #31 ) ;
#6 = DIRECTION ( 'NONE',  ( 1.000000000000000000, 0.000000000000000000, 0.000000000000000000 ) ) ;
#7 = CARTESIAN_POINT ( 'NONE',  ( -3.500000000000000444, 0.000000000000000000, 0.000000000000000000 ) ) ;
#8 = DIRECTION ( 'NONE',  ( 0.000000000000000000, 0.000000000000000000, 1.000000000000000000 ) ) ;
#9 = FACE_OUTER_BOUND ( 'NONE', #41, .T. ) ;
#10 = ADVANCED_FACE ( 'NONE', ( #61 ), #236, .F. ) ;
#11 = CARTESIAN_POINT ( 'NONE',  ( -1.750000000000000000, 0.000000000000000000, 200.0000000000000000 ) ) ;
#12 =( LENGTH_UNIT ( ) NAMED_UNIT ( * ) SI_UNIT ( .MILLI., .METRE. ) );
#13 = APPROVAL_STATUS ( 'not_yet_approved' ) ;
#14 = PRODUCT_DEFINITION ( 'NEZNÁMÝ', '', #17, #59 ) ;
#15 = APPROVAL_DATE_TIME ( #19, #65 ) ;
#16 = ORIENTED_EDGE ( 'NONE', *, *, #57, .T. ) ;
#17 = PRODUCT_DEFINITION_FORMATION_WITH_SPECIFIED_SOURCE ( 'LIBOVOLNÝ', '', #162, .NOT_KNOWN. ) ;
#18 = APPROVAL ( #71, 'NEURÈENÝ' ) ;
#19 = DATE_AND_TIME ( #69, #89 ) ;
#20 = CARTESIAN_POINT ( 'NONE',  ( -3.500000000000000444, 0.000000000000000000, 3.000000000000000000 ) ) ;
#21 = LOCAL_TIME ( 13, 42, 32.00000000000000000, #110 ) ;
#22 = CARTESIAN_POINT ( 'NONE',  ( 0.000000000000000000, 0.000000000000000000, 3.000000000000000000 ) ) ;
#23 = EDGE_LOOP ( 'NONE', ( #196, #80 ) ) ;
#24 = AXIS2_PLACEMENT_3D ( 'NONE', #156, #44, #198 ) ;
#25 = ORIENTED_EDGE ( 'NONE', *, *, #151, .T. ) ;
#26 = ORIENTED_EDGE ( 'NONE', *, *, #151, .F. ) ;
#27 = CYLINDRICAL_SURFACE ( 'NONE', #82, 3.500000000000000444 ) ;
#28 = CARTESIAN_POINT ( 'NONE',  ( -1.750000000000000000, 0.000000000000000000, 3.000000000000000000 ) ) ;
#29 = DIRECTION ( 'NONE',  ( 1.000000000000000000, 0.000000000000000000, -0.000000000000000000 ) ) ;
#30 = CARTESIAN_POINT ( 'NONE',  ( 3.500000000000000444, 4.286263797015737088E-16, 3.000000000000000000 ) ) ;
#31 = DIRECTION ( 'NONE',  ( -1.000000000000000000, 0.000000000000000000, 0.000000000000000000 ) ) ;
#32 = ADVANCED_FACE ( 'NONE', ( #164 ), #4, .T. ) ;
#33 = PERSON_AND_ORGANIZATION ( #34, #202 ) ;
#34 = PERSON ( 'NEURÈENÝ', 'NEURÈENÝ', 'NEURÈENÝ', ('NEURÈENÝ'), ('NEURÈENÝ'), ('NEURÈENÝ') ) ;
#35 = APPROVAL_STATUS ( 'not_yet_approved' ) ;
#36 = APPROVAL_PERSON_ORGANIZATION ( #33, #141, #111 ) ;
#37 = AXIS2_PLACEMENT_3D ( 'NONE', #214, #62, #42 ) ;
#38 = CARTESIAN_POINT ( 'NONE',  ( 0.000000000000000000, 0.000000000000000000, 200.0000000000000000 ) ) ;
#39 = UNCERTAINTY_MEASURE_WITH_UNIT (LENGTH_MEASURE( 1.000000000000000082E-05 ), #12, 'distance_accuracy_value', 'NONE');
#40 = CC_DESIGN_PERSON_AND_ORGANIZATION_ASSIGNMENT ( #190, #52, ( #17 ) ) ;
#41 = EDGE_LOOP ( 'NONE', ( #179, #159 ) ) ;
#42 = DIRECTION ( 'NONE',  ( 1.000000000000000000, 0.000000000000000000, -0.000000000000000000 ) ) ;
#43 = CC_DESIGN_DATE_AND_TIME_ASSIGNMENT ( #247, #171, ( #49 ) ) ;
#44 = DIRECTION ( 'NONE',  ( 0.000000000000000000, 0.000000000000000000, 1.000000000000000000 ) ) ;
#45 = DIRECTION ( 'NONE',  ( 1.000000000000000000, 0.000000000000000000, 0.000000000000000000 ) ) ;
#46 = CARTESIAN_POINT ( 'NONE',  ( 0.000000000000000000, 0.000000000000000000, 0.000000000000000000 ) ) ;
#47 = AXIS2_PLACEMENT_3D ( 'NONE', #38, #115, #193 ) ;
#48 = DIRECTION ( 'NONE',  ( 1.000000000000000000, 0.000000000000000000, 0.000000000000000000 ) ) ;
#49 = SECURITY_CLASSIFICATION ( '', '', #90 ) ;
#50 = EDGE_CURVE ( 'NONE', #2, #140, #157, .T. ) ;
#51 = APPROVAL_ROLE ( '' ) ;
#52 = PERSON_AND_ORGANIZATION_ROLE ( 'design_supplier' ) ;
#53 = CIRCLE ( 'NONE', #237, 1.750000000000000000 ) ;
#54 = CALENDAR_DATE ( 2023, 12, 2 ) ;
#55 = CALENDAR_DATE ( 2023, 12, 2 ) ;
#56 = ORIENTED_EDGE ( 'NONE', *, *, #50, .F. ) ;
#57 = EDGE_CURVE ( 'NONE', #140, #2, #53, .T. ) ;
#58 = ORIENTED_EDGE ( 'NONE', *, *, #239, .F. ) ;
#59 = DESIGN_CONTEXT ( 'detailed design', #243, 'design' ) ;
#60 = EDGE_LOOP ( 'NONE', ( #254, #121, #95, #16 ) ) ;
#61 = FACE_OUTER_BOUND ( 'NONE', #253, .T. ) ;
#62 = DIRECTION ( 'NONE',  ( 0.000000000000000000, 0.000000000000000000, 1.000000000000000000 ) ) ;
#63 = LINE ( 'NONE', #30, #209 ) ;
#64 = DIRECTION ( 'NONE',  ( 1.000000000000000000, 0.000000000000000000, 0.000000000000000000 ) ) ;
#65 = APPROVAL ( #13, 'NEURÈENÝ' ) ;
#66 = FACE_OUTER_BOUND ( 'NONE', #227, .T. ) ;
#67 =( NAMED_UNIT ( * ) PLANE_ANGLE_UNIT ( ) SI_UNIT ( $, .RADIAN. ) );
#68 = APPROVAL_PERSON_ORGANIZATION ( #250, #65, #172 ) ;
#69 = CALENDAR_DATE ( 2023, 12, 2 ) ;
#70 = PERSON_AND_ORGANIZATION_ROLE ( 'creator' ) ;
#71 = APPROVAL_STATUS ( 'not_yet_approved' ) ;
#72 = CARTESIAN_POINT ( 'NONE',  ( 0.000000000000000000, 0.000000000000000000, 0.000000000000000000 ) ) ;
#73 = EDGE_CURVE ( 'NONE', #181, #206, #85, .T. ) ;
#74 = DIRECTION ( 'NONE',  ( -0.000000000000000000, -0.000000000000000000, -1.000000000000000000 ) ) ;
#75 = VECTOR ( 'NONE', #74, 1000.000000000000000 ) ;
#76 = ORIENTED_EDGE ( 'NONE', *, *, #57, .F. ) ;
#77 = EDGE_LOOP ( 'NONE', ( #76, #56 ) ) ;
#78 = CC_DESIGN_APPROVAL ( #141, ( #14 ) ) ;
#79 = ORIENTED_EDGE ( 'NONE', *, *, #127, .F. ) ;
#80 = ORIENTED_EDGE ( 'NONE', *, *, #127, .T. ) ;
#81 = LINE ( 'NONE', #11, #185 ) ;
#82 = AXIS2_PLACEMENT_3D ( 'NONE', #245, #84, #220 ) ;
#83 = PLANE ( 'NONE',  #144 ) ;
#84 = DIRECTION ( 'NONE',  ( -0.000000000000000000, -0.000000000000000000, -1.000000000000000000 ) ) ;
#85 = CIRCLE ( 'NONE', #47, 1.750000000000000000 ) ;
#86 = DIRECTION ( 'NONE',  ( 1.000000000000000000, 0.000000000000000000, 0.000000000000000000 ) ) ;
#87 = CC_DESIGN_PERSON_AND_ORGANIZATION_ASSIGNMENT ( #226, #170, ( #49 ) ) ;
#88 = CARTESIAN_POINT ( 'NONE',  ( 0.000000000000000000, 0.000000000000000000, 0.000000000000000000 ) ) ;
#89 = LOCAL_TIME ( 13, 42, 32.00000000000000000, #129 ) ;
#90 = SECURITY_CLASSIFICATION_LEVEL ( 'unclassified' ) ;
#91 = AXIS2_PLACEMENT_3D ( 'NONE', #46, #124, #86 ) ;
#92 = PERSON_AND_ORGANIZATION ( #34, #202 ) ;
#93 = LINE ( 'NONE', #175, #75 ) ;
#94 = VERTEX_POINT ( 'NONE', #20 ) ;
#95 = ORIENTED_EDGE ( 'NONE', *, *, #204, .T. ) ;
#96 = EDGE_CURVE ( 'NONE', #206, #2, #93, .T. ) ;
#97 = ORIENTED_EDGE ( 'NONE', *, *, #234, .T. ) ;
#98 = CC_DESIGN_APPROVAL ( #65, ( #49 ) ) ;
#99 = ORIENTED_EDGE ( 'NONE', *, *, #122, .F. ) ;
#100 = DIRECTION ( 'NONE',  ( -1.000000000000000000, 0.000000000000000000, 0.000000000000000000 ) ) ;
#101 = CARTESIAN_POINT ( 'NONE',  ( 3.500000000000000444, 4.286263797015737088E-16, 0.000000000000000000 ) ) ;
#102 = DIRECTION ( 'NONE',  ( -0.000000000000000000, -0.000000000000000000, -1.000000000000000000 ) ) ;
#103 = CARTESIAN_POINT ( 'NONE',  ( 0.000000000000000000, 0.000000000000000000, 3.000000000000000000 ) ) ;
#104 = AXIS2_PLACEMENT_3D ( 'NONE', #120, #145, #216 ) ;
#105 = CARTESIAN_POINT ( 'NONE',  ( 0.000000000000000000, 0.000000000000000000, 200.0000000000000000 ) ) ;
#106 = PERSON_AND_ORGANIZATION ( #34, #202 ) ;
#107 = DATE_AND_TIME ( #54, #126 ) ;
#108 = ORIENTED_EDGE ( 'NONE', *, *, #122, .T. ) ;
#109 = CIRCLE ( 'NONE', #255, 3.500000000000000444 ) ;
#110 = COORDINATED_UNIVERSAL_TIME_OFFSET ( 1, 0, .AHEAD. ) ;
#111 = APPROVAL_ROLE ( '' ) ;
#112 = ADVANCED_FACE ( 'NONE', ( #231, #139 ), #212, .T. ) ;
#113 = APPROVAL_DATE_TIME ( #189, #18 ) ;
#114 = PRODUCT_RELATED_PRODUCT_CATEGORY ( 'detail', '', ( #162 ) ) ;
#115 = DIRECTION ( 'NONE',  ( 0.000000000000000000, 0.000000000000000000, 1.000000000000000000 ) ) ;
#116 = DIRECTION ( 'NONE',  ( 0.000000000000000000, 0.000000000000000000, 1.000000000000000000 ) ) ;
#117 = CIRCLE ( 'NONE', #142, 3.500000000000000444 ) ;
#118 = ORIENTED_EDGE ( 'NONE', *, *, #234, .F. ) ;
#119 = AXIS2_PLACEMENT_3D ( 'NONE', #183, #182, #48 ) ;
#120 = CARTESIAN_POINT ( 'NONE',  ( 0.000000000000000000, 0.000000000000000000, 3.000000000000000000 ) ) ;
#121 = ORIENTED_EDGE ( 'NONE', *, *, #73, .F. ) ;
#122 = EDGE_CURVE ( 'NONE', #197, #158, #109, .T. ) ;
#123 = CARTESIAN_POINT ( 'NONE',  ( 0.000000000000000000, 0.000000000000000000, 200.0000000000000000 ) ) ;
#124 = DIRECTION ( 'NONE',  ( 0.000000000000000000, 0.000000000000000000, 1.000000000000000000 ) ) ;
#125 = CARTESIAN_POINT ( 'NONE',  ( 3.500000000000000444, 4.286263797015737088E-16, 3.000000000000000000 ) ) ;
#126 = LOCAL_TIME ( 13, 42, 32.00000000000000000, #192 ) ;
#127 = EDGE_CURVE ( 'NONE', #143, #94, #163, .T. ) ;
#128 = AXIS2_PLACEMENT_3D ( 'NONE', #22, #222, #29 ) ;
#129 = COORDINATED_UNIVERSAL_TIME_OFFSET ( 1, 0, .AHEAD. ) ;
#130 = CALENDAR_DATE ( 2023, 12, 2 ) ;
#131 = CC_DESIGN_PERSON_AND_ORGANIZATION_ASSIGNMENT ( #137, #153, ( #17 ) ) ;
#132 = CC_DESIGN_APPROVAL ( #18, ( #17 ) ) ;
#133 = PERSON_AND_ORGANIZATION ( #34, #202 ) ;
#134 = ORIENTED_EDGE ( 'NONE', *, *, #96, .T. ) ;
#135 = DATE_AND_TIME ( #130, #180 ) ;
#136 = CC_DESIGN_PERSON_AND_ORGANIZATION_ASSIGNMENT ( #106, #150, ( #162 ) ) ;
#137 = PERSON_AND_ORGANIZATION ( #34, #202 ) ;
#138 = EDGE_LOOP ( 'NONE', ( #58, #134, #213, #176 ) ) ;
#139 = FACE_OUTER_BOUND ( 'NONE', #23, .T. ) ;
#140 = VERTEX_POINT ( 'NONE', #28 ) ;
#141 = APPROVAL ( #35, 'NEURÈENÝ' ) ;
#142 = AXIS2_PLACEMENT_3D ( 'NONE', #103, #168, #242 ) ;
#143 = VERTEX_POINT ( 'NONE', #125 ) ;
#144 = AXIS2_PLACEMENT_3D ( 'NONE', #123, #8, #199 ) ;
#145 = DIRECTION ( 'NONE',  ( -0.000000000000000000, -0.000000000000000000, -1.000000000000000000 ) ) ;
#146 = DIRECTION ( 'NONE',  ( 0.000000000000000000, 0.000000000000000000, 1.000000000000000000 ) ) ;
#147 = CYLINDRICAL_SURFACE ( 'NONE', #249, 1.750000000000000000 ) ;
#148 = CARTESIAN_POINT ( 'NONE',  ( 0.000000000000000000, 0.000000000000000000, 200.0000000000000000 ) ) ;
#149 =( NAMED_UNIT ( * ) SI_UNIT ( $, .STERADIAN. ) SOLID_ANGLE_UNIT ( ) );
#150 = PERSON_AND_ORGANIZATION_ROLE ( 'design_owner' ) ;
#151 = EDGE_CURVE ( 'NONE', #94, #158, #238, .T. ) ;
#152 = DATE_TIME_ROLE ( 'creation_date' ) ;
#153 = PERSON_AND_ORGANIZATION_ROLE ( 'creator' ) ;
#154 = DIRECTION ( 'NONE',  ( 0.000000000000000000, 0.000000000000000000, 1.000000000000000000 ) ) ;
#155 = APPROVAL_PERSON_ORGANIZATION ( #133, #18, #51 ) ;
#156 = CARTESIAN_POINT ( 'NONE',  ( 0.000000000000000000, 0.000000000000000000, 3.000000000000000000 ) ) ;
#157 = CIRCLE ( 'NONE', #24, 1.750000000000000000 ) ;
#158 = VERTEX_POINT ( 'NONE', #7 ) ;
#159 = ORIENTED_EDGE ( 'NONE', *, *, #239, .T. ) ;
#160 = LOCAL_TIME ( 13, 42, 32.00000000000000000, #207 ) ;
#161 = ORIENTED_EDGE ( 'NONE', *, *, #246, .T. ) ;
#162 = PRODUCT ( '6187', '6187', '', ( #205 ) ) ;
#163 = CIRCLE ( 'NONE', #119, 3.500000000000000444 ) ;
#164 = FACE_OUTER_BOUND ( 'NONE', #232, .T. ) ;
#165 = CARTESIAN_POINT ( 'NONE',  ( 1.750000000000000000, 2.143131898507868297E-16, 200.0000000000000000 ) ) ;
#166 = DIRECTION ( 'NONE',  ( -0.000000000000000000, -0.000000000000000000, -1.000000000000000000 ) ) ;
#167 = ADVANCED_FACE ( 'NONE', ( #9 ), #83, .T. ) ;
#168 = DIRECTION ( 'NONE',  ( 0.000000000000000000, 0.000000000000000000, 1.000000000000000000 ) ) ;
#169 = CARTESIAN_POINT ( 'NONE',  ( -1.750000000000000000, 0.000000000000000000, 200.0000000000000000 ) ) ;
#170 = PERSON_AND_ORGANIZATION_ROLE ( 'classification_officer' ) ;
#171 = DATE_TIME_ROLE ( 'classification_date' ) ;
#172 = APPROVAL_ROLE ( '' ) ;
#173 = CIRCLE ( 'NONE', #191, 1.750000000000000000 ) ;
#174 = DIRECTION ( 'NONE',  ( 1.000000000000000000, 0.000000000000000000, 0.000000000000000000 ) ) ;
#175 = CARTESIAN_POINT ( 'NONE',  ( 1.750000000000000000, 2.143131898507868297E-16, 200.0000000000000000 ) ) ;
#176 = ORIENTED_EDGE ( 'NONE', *, *, #204, .F. ) ;
#177 = ORIENTED_EDGE ( 'NONE', *, *, #246, .F. ) ;
#178 = ADVANCED_FACE ( 'NONE', ( #66 ), #27, .T. ) ;
#179 = ORIENTED_EDGE ( 'NONE', *, *, #73, .T. ) ;
#180 = LOCAL_TIME ( 13, 42, 32.00000000000000000, #188 ) ;
#181 = VERTEX_POINT ( 'NONE', #169 ) ;
#182 = DIRECTION ( 'NONE',  ( 0.000000000000000000, 0.000000000000000000, 1.000000000000000000 ) ) ;
#183 = CARTESIAN_POINT ( 'NONE',  ( 0.000000000000000000, 0.000000000000000000, 3.000000000000000000 ) ) ;
#184 = ADVANCED_FACE ( 'NONE', ( #203 ), #147, .T. ) ;
#185 = VECTOR ( 'NONE', #166, 1000.000000000000000 ) ;
#186 = DIRECTION ( 'NONE',  ( -0.000000000000000000, -0.000000000000000000, -1.000000000000000000 ) ) ;
#187 = CYLINDRICAL_SURFACE ( 'NONE', #5, 1.750000000000000000 ) ;
#188 = COORDINATED_UNIVERSAL_TIME_OFFSET ( 1, 0, .AHEAD. ) ;
#189 = DATE_AND_TIME ( #224, #160 ) ;
#190 = PERSON_AND_ORGANIZATION ( #34, #202 ) ;
#191 = AXIS2_PLACEMENT_3D ( 'NONE', #148, #240, #64 ) ;
#192 = COORDINATED_UNIVERSAL_TIME_OFFSET ( 1, 0, .AHEAD. ) ;
#193 = DIRECTION ( 'NONE',  ( 1.000000000000000000, 0.000000000000000000, 0.000000000000000000 ) ) ;
#194 = ORIENTED_EDGE ( 'NONE', *, *, #210, .F. ) ;
#195 = CIRCLE ( 'NONE', #91, 3.500000000000000444 ) ;
#196 = ORIENTED_EDGE ( 'NONE', *, *, #210, .T. ) ;
#197 = VERTEX_POINT ( 'NONE', #101 ) ;
#198 = DIRECTION ( 'NONE',  ( 1.000000000000000000, 0.000000000000000000, 0.000000000000000000 ) ) ;
#199 = DIRECTION ( 'NONE',  ( 1.000000000000000000, 0.000000000000000000, -0.000000000000000000 ) ) ;
#200 = CARTESIAN_POINT ( 'NONE',  ( 0.000000000000000000, 0.000000000000000000, 200.0000000000000000 ) ) ;
#201 = DIRECTION ( 'NONE',  ( -0.000000000000000000, -0.000000000000000000, -1.000000000000000000 ) ) ;
#202 = ORGANIZATION ( 'NEURÈENÝ', 'NEURÈENÝ', '' ) ;
#203 = FACE_OUTER_BOUND ( 'NONE', #60, .T. ) ;
#204 = EDGE_CURVE ( 'NONE', #181, #140, #81, .T. ) ;
#205 = MECHANICAL_CONTEXT ( 'NONE', #225, 'mechanical' ) ;
#206 = VERTEX_POINT ( 'NONE', #165 ) ;
#207 = COORDINATED_UNIVERSAL_TIME_OFFSET ( 1, 0, .AHEAD. ) ;
#208 = APPROVAL_DATE_TIME ( #135, #141 ) ;
#209 = VECTOR ( 'NONE', #186, 1000.000000000000000 ) ;
#210 = EDGE_CURVE ( 'NONE', #94, #143, #117, .T. ) ;
#211 = CARTESIAN_POINT ( 'NONE',  ( 0.000000000000000000, 0.000000000000000000, 3.000000000000000000 ) ) ;
#212 = PLANE ( 'NONE',  #128 ) ;
#213 = ORIENTED_EDGE ( 'NONE', *, *, #50, .T. ) ;
#214 = CARTESIAN_POINT ( 'NONE',  ( 0.000000000000000000, 0.000000000000000000, 0.000000000000000000 ) ) ;
#215 = CLOSED_SHELL ( 'NONE', ( #252, #32, #178, #112, #10, #184, #167 ) ) ;
#216 = DIRECTION ( 'NONE',  ( -1.000000000000000000, 0.000000000000000000, 0.000000000000000000 ) ) ;
#217 = CC_DESIGN_DATE_AND_TIME_ASSIGNMENT ( #107, #152, ( #14 ) ) ;
#218 = CARTESIAN_POINT ( 'NONE',  ( -3.500000000000000444, 0.000000000000000000, 3.000000000000000000 ) ) ;
#219 = DIRECTION ( 'NONE',  ( -0.000000000000000000, -0.000000000000000000, -1.000000000000000000 ) ) ;
#220 = DIRECTION ( 'NONE',  ( -1.000000000000000000, 0.000000000000000000, 0.000000000000000000 ) ) ;
#221 = CC_DESIGN_SECURITY_CLASSIFICATION ( #49, ( #17 ) ) ;
#222 = DIRECTION ( 'NONE',  ( 0.000000000000000000, 0.000000000000000000, 1.000000000000000000 ) ) ;
#223 = SHAPE_DEFINITION_REPRESENTATION ( #248, #230 ) ;
#224 = CALENDAR_DATE ( 2023, 12, 2 ) ;
#225 = APPLICATION_CONTEXT ( 'configuration controlled 3d designs of mechanical parts and assemblies' ) ;
#226 = PERSON_AND_ORGANIZATION ( #34, #202 ) ;
#227 = EDGE_LOOP ( 'NONE', ( #118, #194, #25, #161 ) ) ;
#228 = APPLICATION_PROTOCOL_DEFINITION ( 'international standard', 'config_control_design', 1994, #243 ) ;
#229 = APPLICATION_PROTOCOL_DEFINITION ( 'international standard', 'config_control_design', 1994, #225 ) ;
#230 = ADVANCED_BREP_SHAPE_REPRESENTATION ( '6187', ( #3, #241 ), #235 ) ;
#231 = FACE_BOUND ( 'NONE', #77, .T. ) ;
#232 = EDGE_LOOP ( 'NONE', ( #79, #97, #108, #26 ) ) ;
#233 = CARTESIAN_POINT ( 'NONE',  ( 1.750000000000000000, 2.143131898507868297E-16, 3.000000000000000000 ) ) ;
#234 = EDGE_CURVE ( 'NONE', #143, #197, #63, .T. ) ;
#235 =( GEOMETRIC_REPRESENTATION_CONTEXT ( 3 ) GLOBAL_UNCERTAINTY_ASSIGNED_CONTEXT ( ( #39 ) ) GLOBAL_UNIT_ASSIGNED_CONTEXT ( ( #12, #67, #149 ) ) REPRESENTATION_CONTEXT ( 'NONE', 'WORKASPACE' ) );
#236 = PLANE ( 'NONE',  #37 ) ;
#237 = AXIS2_PLACEMENT_3D ( 'NONE', #211, #116, #6 ) ;
#238 = LINE ( 'NONE', #218, #251 ) ;
#239 = EDGE_CURVE ( 'NONE', #206, #181, #173, .T. ) ;
#240 = DIRECTION ( 'NONE',  ( 0.000000000000000000, 0.000000000000000000, 1.000000000000000000 ) ) ;
#241 = AXIS2_PLACEMENT_3D ( 'NONE', #72, #154, #174 ) ;
#242 = DIRECTION ( 'NONE',  ( 1.000000000000000000, 0.000000000000000000, 0.000000000000000000 ) ) ;
#243 = APPLICATION_CONTEXT ( 'configuration controlled 3d designs of mechanical parts and assemblies' ) ;
#244 = FACE_OUTER_BOUND ( 'NONE', #138, .T. ) ;
#245 = CARTESIAN_POINT ( 'NONE',  ( 0.000000000000000000, 0.000000000000000000, 3.000000000000000000 ) ) ;
#246 = EDGE_CURVE ( 'NONE', #158, #197, #195, .T. ) ;
#247 = DATE_AND_TIME ( #55, #21 ) ;
#248 = PRODUCT_DEFINITION_SHAPE ( 'NONE', 'NONE',  #14 ) ;
#249 = AXIS2_PLACEMENT_3D ( 'NONE', #105, #102, #100 ) ;
#250 = PERSON_AND_ORGANIZATION ( #34, #202 ) ;
#251 = VECTOR ( 'NONE', #201, 1000.000000000000000 ) ;
#252 = ADVANCED_FACE ( 'NONE', ( #244 ), #187, .T. ) ;
#253 = EDGE_LOOP ( 'NONE', ( #177, #99 ) ) ;
#254 = ORIENTED_EDGE ( 'NONE', *, *, #96, .F. ) ;
#255 = AXIS2_PLACEMENT_3D ( 'NONE', #88, #146, #45 ) ;
ENDSEC;
END-ISO-10303-21;
