ISO-10303-21;
HEADER;
FILE_DESCRIPTION (( 'STEP AP203' ),
    '1' );
FILE_NAME ('fa1e.STEP',
    '2022-08-08T13:23:47',
    ( '' ),
    ( '' ),
    'SwSTEP 2.0',
    'SolidWorks 2019',
    '' );
FILE_SCHEMA (( 'CONFIG_CONTROL_DESIGN' ));
ENDSEC;

DATA;
#1 = EDGE_CURVE ( 'NONE', #207, #69, #277, .T. ) ;
#2 = VECTOR ( 'NONE', #60, 1000.000000000000000 ) ;
#3 = DIRECTION ( 'NONE',  ( -0.000000000000000000, -0.000000000000000000, -1.000000000000000000 ) ) ;
#4 = CC_DESIGN_PERSON_AND_ORGANIZATION_ASSIGNMENT ( #114, #20, ( #171 ) ) ;
#5 = DIRECTION ( 'NONE',  ( 1.224646799147353207E-16, 1.000000000000000000, -0.000000000000000000 ) ) ;
#6 = DIRECTION ( 'NONE',  ( -0.000000000000000000, -0.000000000000000000, -1.000000000000000000 ) ) ;
#7 = EDGE_CURVE ( 'NONE', #292, #207, #178, .T. ) ;
#8 = DIRECTION ( 'NONE',  ( -0.000000000000000000, -0.000000000000000000, -1.000000000000000000 ) ) ;
#9 = CIRCLE ( 'NONE', #39, 1.250000000000000000 ) ;
#10 = CARTESIAN_POINT ( 'NONE',  ( 0.000000000000000000, 0.000000000000000000, 1.199999999999999956 ) ) ;
#11 = EDGE_CURVE ( 'NONE', #161, #292, #142, .T. ) ;
#12 = TOROIDAL_SURFACE ( 'NONE', #185, 0.6999999999999999556, 0.2000000000000000111 ) ;
#13 = DIRECTION ( 'NONE',  ( 0.000000000000000000, 0.000000000000000000, 1.000000000000000000 ) ) ;
#14 = EDGE_LOOP ( 'NONE', ( #299, #48, #21, #226 ) ) ;
#15 = ADVANCED_FACE ( 'NONE', ( #202 ), #294, .T. ) ;
#16 = COORDINATED_UNIVERSAL_TIME_OFFSET ( 1, 0, .AHEAD. ) ;
#17 = VERTEX_POINT ( 'NONE', #251 ) ;
#18 = CIRCLE ( 'NONE', #191, 0.6999999999999999556 ) ;
#19 = ORIENTED_EDGE ( 'NONE', *, *, #255, .T. ) ;
#20 = PERSON_AND_ORGANIZATION_ROLE ( 'classification_officer' ) ;
#21 = ORIENTED_EDGE ( 'NONE', *, *, #204, .T. ) ;
#22 = DATE_AND_TIME ( #43, #83 ) ;
#23 = AXIS2_PLACEMENT_3D ( 'NONE', #227, #5, #26 ) ;
#24 = DIRECTION ( 'NONE',  ( 0.000000000000000000, 0.000000000000000000, 1.000000000000000000 ) ) ;
#25 = CC_DESIGN_APPROVAL ( #169, ( #219 ) ) ;
#26 = DIRECTION ( 'NONE',  ( -1.000000000000000000, 1.224646799147352714E-16, 0.000000000000000000 ) ) ;
#27 = CYLINDRICAL_SURFACE ( 'NONE', #99, 1.250000000000000000 ) ;
#28 = CARTESIAN_POINT ( 'NONE',  ( 0.000000000000000000, 0.000000000000000000, 0.000000000000000000 ) ) ;
#29 = CARTESIAN_POINT ( 'NONE',  ( 0.000000000000000000, 0.000000000000000000, 101.2000000000000171 ) ) ;
#30 = CARTESIAN_POINT ( 'NONE',  ( 0.000000000000000000, 0.000000000000000000, 1.399999999999998579 ) ) ;
#31 = CARTESIAN_POINT ( 'NONE',  ( -1.250000000000000000, 0.000000000000000000, 1.199999999999999956 ) ) ;
#32 = APPROVAL_STATUS ( 'not_yet_approved' ) ;
#33 = AXIS2_PLACEMENT_3D ( 'NONE', #29, #256, #78 ) ;
#34 = APPROVAL ( #160, 'NEURÈENÝ' ) ;
#35 = DIRECTION ( 'NONE',  ( 0.000000000000000000, 0.000000000000000000, 1.000000000000000000 ) ) ;
#36 = DIRECTION ( 'NONE',  ( 1.000000000000000000, 0.000000000000000000, 0.000000000000000000 ) ) ;
#37 = TOROIDAL_SURFACE ( 'NONE', #206, 0.6999999999999999556, 0.2000000000000000111 ) ;
#38 = CC_DESIGN_PERSON_AND_ORGANIZATION_ASSIGNMENT ( #81, #59, ( #219 ) ) ;
#39 = AXIS2_PLACEMENT_3D ( 'NONE', #10, #35, #103 ) ;
#40 =( LENGTH_UNIT ( ) NAMED_UNIT ( * ) SI_UNIT ( .MILLI., .METRE. ) );
#41 = MANIFOLD_SOLID_BREP ( 'Zaoblit1', #44 ) ;
#42 = EDGE_LOOP ( 'NONE', ( #64, #87 ) ) ;
#43 = CALENDAR_DATE ( 2022, 8, 8 ) ;
#44 = CLOSED_SHELL ( 'NONE', ( #152, #15, #67, #198, #304, #162, #187, #174, #54 ) ) ;
#45 = CARTESIAN_POINT ( 'NONE',  ( 0.000000000000000000, 0.000000000000000000, 101.2000000000000171 ) ) ;
#46 = ORIENTED_EDGE ( 'NONE', *, *, #245, .F. ) ;
#47 = EDGE_CURVE ( 'NONE', #17, #93, #285, .T. ) ;
#48 = ORIENTED_EDGE ( 'NONE', *, *, #47, .F. ) ;
#49 = ORIENTED_EDGE ( 'NONE', *, *, #7, .F. ) ;
#50 = DIRECTION ( 'NONE',  ( 1.000000000000000000, 0.000000000000000000, -0.000000000000000000 ) ) ;
#51 = CARTESIAN_POINT ( 'NONE',  ( 0.5000000000000000000, 6.123233995736766036E-17, 101.2000000000000171 ) ) ;
#52 = DIRECTION ( 'NONE',  ( 0.000000000000000000, 0.000000000000000000, 1.000000000000000000 ) ) ;
#53 = FACE_OUTER_BOUND ( 'NONE', #274, .T. ) ;
#54 = ADVANCED_FACE ( 'NONE', ( #228 ), #37, .F. ) ;
#55 = FACE_OUTER_BOUND ( 'NONE', #134, .T. ) ;
#56 = APPROVAL_PERSON_ORGANIZATION ( #258, #169, #128 ) ;
#57 = DIRECTION ( 'NONE',  ( 0.000000000000000000, 0.000000000000000000, -1.000000000000000000 ) ) ;
#58 = EDGE_CURVE ( 'NONE', #93, #246, #250, .T. ) ;
#59 = PERSON_AND_ORGANIZATION_ROLE ( 'creator' ) ;
#60 = DIRECTION ( 'NONE',  ( -0.000000000000000000, -0.000000000000000000, -1.000000000000000000 ) ) ;
#61 = APPROVAL_ROLE ( '' ) ;
#62 = DIRECTION ( 'NONE',  ( -0.000000000000000000, -0.000000000000000000, -1.000000000000000000 ) ) ;
#63 = DATE_AND_TIME ( #84, #100 ) ;
#64 = ORIENTED_EDGE ( 'NONE', *, *, #70, .T. ) ;
#65 = AXIS2_PLACEMENT_3D ( 'NONE', #136, #24, #85 ) ;
#66 = ORIENTED_EDGE ( 'NONE', *, *, #245, .T. ) ;
#67 = ADVANCED_FACE ( 'NONE', ( #76 ), #27, .T. ) ;
#68 = ORIENTED_EDGE ( 'NONE', *, *, #238, .T. ) ;
#69 = VERTEX_POINT ( 'NONE', #276 ) ;
#70 = EDGE_CURVE ( 'NONE', #225, #110, #176, .T. ) ;
#71 = FACE_OUTER_BOUND ( 'NONE', #203, .T. ) ;
#72 = ORGANIZATION ( 'NEURÈENÝ', 'NEURÈENÝ', '' ) ;
#73 = CIRCLE ( 'NONE', #111, 0.2000000000000000944 ) ;
#74 = DIRECTION ( 'NONE',  ( 0.000000000000000000, 0.000000000000000000, 1.000000000000000000 ) ) ;
#75 = DIRECTION ( 'NONE',  ( -0.000000000000000000, -0.000000000000000000, -1.000000000000000000 ) ) ;
#76 = FACE_OUTER_BOUND ( 'NONE', #91, .T. ) ;
#77 = EDGE_CURVE ( 'NONE', #110, #17, #283, .T. ) ;
#78 = DIRECTION ( 'NONE',  ( -1.000000000000000000, 0.000000000000000000, 0.000000000000000000 ) ) ;
#79 = PERSON_AND_ORGANIZATION_ROLE ( 'design_owner' ) ;
#80 = DIRECTION ( 'NONE',  ( 1.000000000000000000, 0.000000000000000000, 0.000000000000000000 ) ) ;
#81 = PERSON_AND_ORGANIZATION ( #97, #72 ) ;
#82 = DIRECTION ( 'NONE',  ( 0.000000000000000000, 0.000000000000000000, 1.000000000000000000 ) ) ;
#83 = LOCAL_TIME ( 15, 23, 47.00000000000000000, #16 ) ;
#84 = CALENDAR_DATE ( 2022, 8, 8 ) ;
#85 = DIRECTION ( 'NONE',  ( 1.000000000000000000, 0.000000000000000000, 0.000000000000000000 ) ) ;
#86 = AXIS2_PLACEMENT_3D ( 'NONE', #147, #194, #231 ) ;
#87 = ORIENTED_EDGE ( 'NONE', *, *, #195, .T. ) ;
#88 = CALENDAR_DATE ( 2022, 8, 8 ) ;
#89 = ORIENTED_EDGE ( 'NONE', *, *, #7, .T. ) ;
#90 = DATE_AND_TIME ( #181, #126 ) ;
#91 = EDGE_LOOP ( 'NONE', ( #273, #19, #180, #49 ) ) ;
#92 = DATE_AND_TIME ( #88, #144 ) ;
#93 = VERTEX_POINT ( 'NONE', #305 ) ;
#94 = DIRECTION ( 'NONE',  ( 1.000000000000000000, 0.000000000000000000, 0.000000000000000000 ) ) ;
#95 = DIRECTION ( 'NONE',  ( 1.000000000000000000, 0.000000000000000000, 0.000000000000000000 ) ) ;
#96 = DIRECTION ( 'NONE',  ( -1.000000000000000000, 0.000000000000000000, 0.000000000000000000 ) ) ;
#97 = PERSON ( 'NEURÈENÝ', 'NEURÈENÝ', 'NEURÈENÝ', ('NEURÈENÝ'), ('NEURÈENÝ'), ('NEURÈENÝ') ) ;
#98 = DIRECTION ( 'NONE',  ( -1.000000000000000000, 0.000000000000000000, 0.000000000000000000 ) ) ;
#99 = AXIS2_PLACEMENT_3D ( 'NONE', #192, #3, #96 ) ;
#100 = LOCAL_TIME ( 15, 23, 47.00000000000000000, #271 ) ;
#101 = UNCERTAINTY_MEASURE_WITH_UNIT (LENGTH_MEASURE( 1.000000000000000082E-05 ), #40, 'distance_accuracy_value', 'NONE');
#102 = EDGE_CURVE ( 'NONE', #225, #93, #117, .T. ) ;
#103 = DIRECTION ( 'NONE',  ( 1.000000000000000000, 0.000000000000000000, 0.000000000000000000 ) ) ;
#104 = PRODUCT_RELATED_PRODUCT_CATEGORY ( 'detail', '', ( #208 ) ) ;
#105 = COORDINATED_UNIVERSAL_TIME_OFFSET ( 1, 0, .AHEAD. ) ;
#106 = CARTESIAN_POINT ( 'NONE',  ( 0.000000000000000000, 0.000000000000000000, 1.199999999999999956 ) ) ;
#107 = EDGE_CURVE ( 'NONE', #69, #207, #145, .T. ) ;
#108 = ORIENTED_EDGE ( 'NONE', *, *, #70, .F. ) ;
#109 = PERSON_AND_ORGANIZATION ( #97, #72 ) ;
#110 = VERTEX_POINT ( 'NONE', #51 ) ;
#111 = AXIS2_PLACEMENT_3D ( 'NONE', #153, #236, #57 ) ;
#112 = ORIENTED_EDGE ( 'NONE', *, *, #275, .F. ) ;
#113 = ORIENTED_EDGE ( 'NONE', *, *, #11, .T. ) ;
#114 = PERSON_AND_ORGANIZATION ( #97, #72 ) ;
#115 = EDGE_LOOP ( 'NONE', ( #163, #248, #223, #186 ) ) ;
#116 = DIRECTION ( 'NONE',  ( 0.000000000000000000, 0.000000000000000000, 1.000000000000000000 ) ) ;
#117 = LINE ( 'NONE', #211, #291 ) ;
#118 = CARTESIAN_POINT ( 'NONE',  ( 0.000000000000000000, 0.000000000000000000, 101.2000000000000171 ) ) ;
#119 = LOCAL_TIME ( 15, 23, 47.00000000000000000, #105 ) ;
#120 = DIRECTION ( 'NONE',  ( -0.000000000000000000, -0.000000000000000000, -1.000000000000000000 ) ) ;
#121 = CC_DESIGN_DATE_AND_TIME_ASSIGNMENT ( #22, #220, ( #219 ) ) ;
#122 = CYLINDRICAL_SURFACE ( 'NONE', #234, 1.250000000000000000 ) ;
#123 = CARTESIAN_POINT ( 'NONE',  ( 0.000000000000000000, 0.000000000000000000, 0.000000000000000000 ) ) ;
#124 = VECTOR ( 'NONE', #75, 1000.000000000000000 ) ;
#125 = AXIS2_PLACEMENT_3D ( 'NONE', #193, #116, #165 ) ;
#126 = LOCAL_TIME ( 15, 23, 47.00000000000000000, #247 ) ;
#127 = AXIS2_PLACEMENT_3D ( 'NONE', #282, #52, #252 ) ;
#128 = APPROVAL_ROLE ( '' ) ;
#129 = CARTESIAN_POINT ( 'NONE',  ( 0.000000000000000000, 0.000000000000000000, 1.199999999999999956 ) ) ;
#130 = CARTESIAN_POINT ( 'NONE',  ( 0.000000000000000000, 0.000000000000000000, 1.199999999999999956 ) ) ;
#131 = ORIENTED_EDGE ( 'NONE', *, *, #1, .F. ) ;
#132 = ORIENTED_EDGE ( 'NONE', *, *, #107, .F. ) ;
#133 = CC_DESIGN_DATE_AND_TIME_ASSIGNMENT ( #90, #222, ( #171 ) ) ;
#134 = EDGE_LOOP ( 'NONE', ( #249, #112, #89, #200 ) ) ;
#135 = PERSON_AND_ORGANIZATION ( #97, #72 ) ;
#136 = CARTESIAN_POINT ( 'NONE',  ( 0.000000000000000000, 0.000000000000000000, 0.000000000000000000 ) ) ;
#137 = CC_DESIGN_SECURITY_CLASSIFICATION ( #171, ( #265 ) ) ;
#138 = CC_DESIGN_PERSON_AND_ORGANIZATION_ASSIGNMENT ( #284, #79, ( #208 ) ) ;
#139 = ORIENTED_EDGE ( 'NONE', *, *, #77, .F. ) ;
#140 = DIRECTION ( 'NONE',  ( -1.000000000000000000, 0.000000000000000000, 0.000000000000000000 ) ) ;
#141 = PLANE ( 'NONE',  #150 ) ;
#142 = CIRCLE ( 'NONE', #254, 1.250000000000000000 ) ;
#143 = CYLINDRICAL_SURFACE ( 'NONE', #33, 0.5000000000000000000 ) ;
#144 = LOCAL_TIME ( 15, 23, 47.00000000000000000, #293 ) ;
#145 = CIRCLE ( 'NONE', #125, 1.250000000000000000 ) ;
#146 = CC_DESIGN_PERSON_AND_ORGANIZATION_ASSIGNMENT ( #154, #177, ( #265 ) ) ;
#147 = CARTESIAN_POINT ( 'NONE',  ( 0.000000000000000000, 0.000000000000000000, 101.2000000000000171 ) ) ;
#148 = PLANE ( 'NONE',  #184 ) ;
#149 = AXIS2_PLACEMENT_3D ( 'NONE', #118, #257, #94 ) ;
#150 = AXIS2_PLACEMENT_3D ( 'NONE', #28, #164, #50 ) ;
#151 = DIRECTION ( 'NONE',  ( -0.000000000000000000, -0.000000000000000000, -1.000000000000000000 ) ) ;
#152 = ADVANCED_FACE ( 'NONE', ( #53 ), #12, .F. ) ;
#153 = CARTESIAN_POINT ( 'NONE',  ( 0.6999999999999999556, 0.000000000000000000, 1.399999999999998579 ) ) ;
#154 = PERSON_AND_ORGANIZATION ( #97, #72 ) ;
#155 = DIRECTION ( 'NONE',  ( 1.000000000000000000, 0.000000000000000000, 0.000000000000000000 ) ) ;
#156 = ADVANCED_BREP_SHAPE_REPRESENTATION ( 'fa1e', ( #41, #244 ), #259 ) ;
#157 = APPROVAL_DATE_TIME ( #92, #34 ) ;
#158 = VERTEX_POINT ( 'NONE', #209 ) ;
#159 = EDGE_LOOP ( 'NONE', ( #139, #108, #205, #68 ) ) ;
#160 = APPROVAL_STATUS ( 'not_yet_approved' ) ;
#161 = VERTEX_POINT ( 'NONE', #229 ) ;
#162 = ADVANCED_FACE ( 'NONE', ( #71 ), #141, .F. ) ;
#163 = ORIENTED_EDGE ( 'NONE', *, *, #195, .F. ) ;
#164 = DIRECTION ( 'NONE',  ( 0.000000000000000000, 0.000000000000000000, 1.000000000000000000 ) ) ;
#165 = DIRECTION ( 'NONE',  ( 1.000000000000000000, 0.000000000000000000, 0.000000000000000000 ) ) ;
#166 = FACE_OUTER_BOUND ( 'NONE', #42, .T. ) ;
#167 = FACE_OUTER_BOUND ( 'NONE', #159, .T. ) ;
#168 = DIRECTION ( 'NONE',  ( -0.000000000000000000, -0.000000000000000000, -1.000000000000000000 ) ) ;
#169 = APPROVAL ( #32, 'NEURÈENÝ' ) ;
#170 = APPLICATION_PROTOCOL_DEFINITION ( 'international standard', 'config_control_design', 1994, #240 ) ;
#171 = SECURITY_CLASSIFICATION ( '', '', #295 ) ;
#172 = CIRCLE ( 'NONE', #279, 0.5000000000000000000 ) ;
#173 = CARTESIAN_POINT ( 'NONE',  ( -0.5000000000000000000, 0.000000000000000000, 101.2000000000000171 ) ) ;
#174 = ADVANCED_FACE ( 'NONE', ( #166 ), #253, .T. ) ;
#175 =( NAMED_UNIT ( * ) SI_UNIT ( $, .STERADIAN. ) SOLID_ANGLE_UNIT ( ) );
#176 = CIRCLE ( 'NONE', #149, 0.5000000000000000000 ) ;
#177 = PERSON_AND_ORGANIZATION_ROLE ( 'design_supplier' ) ;
#178 = LINE ( 'NONE', #182, #243 ) ;
#179 = CC_DESIGN_PERSON_AND_ORGANIZATION_ASSIGNMENT ( #135, #224, ( #265 ) ) ;
#180 = ORIENTED_EDGE ( 'NONE', *, *, #107, .T. ) ;
#181 = CALENDAR_DATE ( 2022, 8, 8 ) ;
#182 = CARTESIAN_POINT ( 'NONE',  ( -1.250000000000000000, 0.000000000000000000, 1.199999999999999956 ) ) ;
#183 = AXIS2_PLACEMENT_3D ( 'NONE', #45, #168, #140 ) ;
#184 = AXIS2_PLACEMENT_3D ( 'NONE', #106, #213, #237 ) ;
#185 = AXIS2_PLACEMENT_3D ( 'NONE', #306, #189, #281 ) ;
#186 = ORIENTED_EDGE ( 'NONE', *, *, #102, .F. ) ;
#187 = ADVANCED_FACE ( 'NONE', ( #167 ), #143, .T. ) ;
#188 = ORIENTED_EDGE ( 'NONE', *, *, #58, .T. ) ;
#189 = DIRECTION ( 'NONE',  ( 0.000000000000000000, 0.000000000000000000, 1.000000000000000000 ) ) ;
#190 = CARTESIAN_POINT ( 'NONE',  ( 0.000000000000000000, 0.000000000000000000, 1.399999999999998579 ) ) ;
#191 = AXIS2_PLACEMENT_3D ( 'NONE', #130, #151, #262 ) ;
#192 = CARTESIAN_POINT ( 'NONE',  ( 0.000000000000000000, 0.000000000000000000, 1.199999999999999956 ) ) ;
#193 = CARTESIAN_POINT ( 'NONE',  ( 0.000000000000000000, 0.000000000000000000, 0.000000000000000000 ) ) ;
#194 = DIRECTION ( 'NONE',  ( 0.000000000000000000, 0.000000000000000000, 1.000000000000000000 ) ) ;
#195 = EDGE_CURVE ( 'NONE', #110, #225, #301, .T. ) ;
#196 =( NAMED_UNIT ( * ) PLANE_ANGLE_UNIT ( ) SI_UNIT ( $, .RADIAN. ) );
#197 = FACE_OUTER_BOUND ( 'NONE', #239, .T. ) ;
#198 = ADVANCED_FACE ( 'NONE', ( #55 ), #122, .T. ) ;
#199 = CIRCLE ( 'NONE', #214, 0.6999999999999999556 ) ;
#200 = ORIENTED_EDGE ( 'NONE', *, *, #1, .T. ) ;
#201 = APPROVAL_ROLE ( '' ) ;
#202 = FACE_OUTER_BOUND ( 'NONE', #115, .T. ) ;
#203 = EDGE_LOOP ( 'NONE', ( #131, #132 ) ) ;
#204 = EDGE_CURVE ( 'NONE', #17, #158, #73, .T. ) ;
#205 = ORIENTED_EDGE ( 'NONE', *, *, #102, .T. ) ;
#206 = AXIS2_PLACEMENT_3D ( 'NONE', #30, #74, #280 ) ;
#207 = VERTEX_POINT ( 'NONE', #233 ) ;
#208 = PRODUCT ( 'fa1e', 'fa1e', '', ( #232 ) ) ;
#209 = CARTESIAN_POINT ( 'NONE',  ( 0.6999999999999999556, 0.000000000000000000, 1.199999999999999289 ) ) ;
#210 = DIRECTION ( 'NONE',  ( 0.000000000000000000, 0.000000000000000000, 1.000000000000000000 ) ) ;
#211 = CARTESIAN_POINT ( 'NONE',  ( -0.5000000000000000000, 0.000000000000000000, 101.2000000000000171 ) ) ;
#212 = CARTESIAN_POINT ( 'NONE',  ( 0.000000000000000000, 0.000000000000000000, 1.199999999999999956 ) ) ;
#213 = DIRECTION ( 'NONE',  ( 0.000000000000000000, 0.000000000000000000, 1.000000000000000000 ) ) ;
#214 = AXIS2_PLACEMENT_3D ( 'NONE', #129, #8, #216 ) ;
#215 = CALENDAR_DATE ( 2022, 8, 8 ) ;
#216 = DIRECTION ( 'NONE',  ( 1.000000000000000000, 0.000000000000000000, 0.000000000000000000 ) ) ;
#217 = LINE ( 'NONE', #235, #2 ) ;
#218 = CC_DESIGN_APPROVAL ( #34, ( #171 ) ) ;
#219 = PRODUCT_DEFINITION ( 'NEZNÁMÝ', '', #265, #287 ) ;
#220 = DATE_TIME_ROLE ( 'creation_date' ) ;
#221 = ORIENTED_EDGE ( 'NONE', *, *, #275, .T. ) ;
#222 = DATE_TIME_ROLE ( 'classification_date' ) ;
#223 = ORIENTED_EDGE ( 'NONE', *, *, #47, .T. ) ;
#224 = PERSON_AND_ORGANIZATION_ROLE ( 'creator' ) ;
#225 = VERTEX_POINT ( 'NONE', #173 ) ;
#226 = ORIENTED_EDGE ( 'NONE', *, *, #289, .F. ) ;
#227 = CARTESIAN_POINT ( 'NONE',  ( -0.6999999999999999556, 8.572527594031471957E-17, 1.399999999999998579 ) ) ;
#228 = FACE_OUTER_BOUND ( 'NONE', #14, .T. ) ;
#229 = CARTESIAN_POINT ( 'NONE',  ( 1.250000000000000000, 1.530808498934191571E-16, 1.199999999999999956 ) ) ;
#230 = CARTESIAN_POINT ( 'NONE',  ( 0.5000000000000000000, 6.123233995736766036E-17, 101.2000000000000171 ) ) ;
#231 = DIRECTION ( 'NONE',  ( 1.000000000000000000, 0.000000000000000000, 0.000000000000000000 ) ) ;
#232 = MECHANICAL_CONTEXT ( 'NONE', #263, 'mechanical' ) ;
#233 = CARTESIAN_POINT ( 'NONE',  ( -1.250000000000000000, 0.000000000000000000, 0.000000000000000000 ) ) ;
#234 = AXIS2_PLACEMENT_3D ( 'NONE', #212, #6, #98 ) ;
#235 = CARTESIAN_POINT ( 'NONE',  ( 1.250000000000000000, 1.530808498934191571E-16, 1.199999999999999956 ) ) ;
#236 = DIRECTION ( 'NONE',  ( 0.000000000000000000, -1.000000000000000000, 0.000000000000000000 ) ) ;
#237 = DIRECTION ( 'NONE',  ( 1.000000000000000000, 0.000000000000000000, -0.000000000000000000 ) ) ;
#238 = EDGE_CURVE ( 'NONE', #93, #17, #172, .T. ) ;
#239 = EDGE_LOOP ( 'NONE', ( #221, #113 ) ) ;
#240 = APPLICATION_CONTEXT ( 'configuration controlled 3d designs of mechanical parts and assemblies' ) ;
#241 = SHAPE_DEFINITION_REPRESENTATION ( #270, #156 ) ;
#242 = ORIENTED_EDGE ( 'NONE', *, *, #204, .F. ) ;
#243 = VECTOR ( 'NONE', #62, 1000.000000000000000 ) ;
#244 = AXIS2_PLACEMENT_3D ( 'NONE', #123, #82, #80 ) ;
#245 = EDGE_CURVE ( 'NONE', #158, #246, #18, .T. ) ;
#246 = VERTEX_POINT ( 'NONE', #290 ) ;
#247 = COORDINATED_UNIVERSAL_TIME_OFFSET ( 1, 0, .AHEAD. ) ;
#248 = ORIENTED_EDGE ( 'NONE', *, *, #77, .T. ) ;
#249 = ORIENTED_EDGE ( 'NONE', *, *, #255, .F. ) ;
#250 = CIRCLE ( 'NONE', #23, 0.1999999999999999833 ) ;
#251 = CARTESIAN_POINT ( 'NONE',  ( 0.5000000000000000000, 6.123233995736766036E-17, 1.399999999999998579 ) ) ;
#252 = DIRECTION ( 'NONE',  ( 1.000000000000000000, 0.000000000000000000, -0.000000000000000000 ) ) ;
#253 = PLANE ( 'NONE',  #127 ) ;
#254 = AXIS2_PLACEMENT_3D ( 'NONE', #267, #272, #155 ) ;
#255 = EDGE_CURVE ( 'NONE', #161, #69, #217, .T. ) ;
#256 = DIRECTION ( 'NONE',  ( -0.000000000000000000, -0.000000000000000000, -1.000000000000000000 ) ) ;
#257 = DIRECTION ( 'NONE',  ( 0.000000000000000000, 0.000000000000000000, 1.000000000000000000 ) ) ;
#258 = PERSON_AND_ORGANIZATION ( #97, #72 ) ;
#259 =( GEOMETRIC_REPRESENTATION_CONTEXT ( 3 ) GLOBAL_UNCERTAINTY_ASSIGNED_CONTEXT ( ( #101 ) ) GLOBAL_UNIT_ASSIGNED_CONTEXT ( ( #40, #196, #175 ) ) REPRESENTATION_CONTEXT ( 'NONE', 'WORKASPACE' ) );
#260 = DATE_AND_TIME ( #215, #119 ) ;
#261 = CARTESIAN_POINT ( 'NONE',  ( 0.000000000000000000, 0.000000000000000000, 1.399999999999998579 ) ) ;
#262 = DIRECTION ( 'NONE',  ( 1.000000000000000000, 0.000000000000000000, 0.000000000000000000 ) ) ;
#263 = APPLICATION_CONTEXT ( 'configuration controlled 3d designs of mechanical parts and assemblies' ) ;
#264 = APPLICATION_PROTOCOL_DEFINITION ( 'international standard', 'config_control_design', 1994, #263 ) ;
#265 = PRODUCT_DEFINITION_FORMATION_WITH_SPECIFIED_SOURCE ( 'LIBOVOLNÝ', '', #208, .NOT_KNOWN. ) ;
#266 = PERSON_AND_ORGANIZATION ( #97, #72 ) ;
#267 = CARTESIAN_POINT ( 'NONE',  ( 0.000000000000000000, 0.000000000000000000, 1.199999999999999956 ) ) ;
#268 = APPROVAL_STATUS ( 'not_yet_approved' ) ;
#269 = ORIENTED_EDGE ( 'NONE', *, *, #238, .F. ) ;
#270 = PRODUCT_DEFINITION_SHAPE ( 'NONE', 'NONE',  #219 ) ;
#271 = COORDINATED_UNIVERSAL_TIME_OFFSET ( 1, 0, .AHEAD. ) ;
#272 = DIRECTION ( 'NONE',  ( 0.000000000000000000, 0.000000000000000000, 1.000000000000000000 ) ) ;
#273 = ORIENTED_EDGE ( 'NONE', *, *, #11, .F. ) ;
#274 = EDGE_LOOP ( 'NONE', ( #269, #188, #46, #242 ) ) ;
#275 = EDGE_CURVE ( 'NONE', #292, #161, #9, .T. ) ;
#276 = CARTESIAN_POINT ( 'NONE',  ( 1.250000000000000000, 1.530808498934191571E-16, 0.000000000000000000 ) ) ;
#277 = CIRCLE ( 'NONE', #65, 1.250000000000000000 ) ;
#278 = APPROVAL_PERSON_ORGANIZATION ( #266, #296, #61 ) ;
#279 = AXIS2_PLACEMENT_3D ( 'NONE', #261, #13, #36 ) ;
#280 = DIRECTION ( 'NONE',  ( 1.000000000000000000, 0.000000000000000000, 0.000000000000000000 ) ) ;
#281 = DIRECTION ( 'NONE',  ( 1.000000000000000000, 0.000000000000000000, 0.000000000000000000 ) ) ;
#282 = CARTESIAN_POINT ( 'NONE',  ( 0.000000000000000000, 0.000000000000000000, 101.2000000000000171 ) ) ;
#283 = LINE ( 'NONE', #230, #124 ) ;
#284 = PERSON_AND_ORGANIZATION ( #97, #72 ) ;
#285 = CIRCLE ( 'NONE', #298, 0.5000000000000000000 ) ;
#286 = APPROVAL_DATE_TIME ( #260, #169 ) ;
#287 = DESIGN_CONTEXT ( 'detailed design', #240, 'design' ) ;
#288 = FACE_BOUND ( 'NONE', #297, .T. ) ;
#289 = EDGE_CURVE ( 'NONE', #246, #158, #199, .T. ) ;
#290 = CARTESIAN_POINT ( 'NONE',  ( -0.6999999999999999556, 8.572527594031473190E-17, 1.199999999999999289 ) ) ;
#291 = VECTOR ( 'NONE', #120, 1000.000000000000000 ) ;
#292 = VERTEX_POINT ( 'NONE', #31 ) ;
#293 = COORDINATED_UNIVERSAL_TIME_OFFSET ( 1, 0, .AHEAD. ) ;
#294 = CYLINDRICAL_SURFACE ( 'NONE', #183, 0.5000000000000000000 ) ;
#295 = SECURITY_CLASSIFICATION_LEVEL ( 'unclassified' ) ;
#296 = APPROVAL ( #268, 'NEURÈENÝ' ) ;
#297 = EDGE_LOOP ( 'NONE', ( #66, #303 ) ) ;
#298 = AXIS2_PLACEMENT_3D ( 'NONE', #190, #210, #95 ) ;
#299 = ORIENTED_EDGE ( 'NONE', *, *, #58, .F. ) ;
#300 = APPROVAL_PERSON_ORGANIZATION ( #109, #34, #201 ) ;
#301 = CIRCLE ( 'NONE', #86, 0.5000000000000000000 ) ;
#302 = APPROVAL_DATE_TIME ( #63, #296 ) ;
#303 = ORIENTED_EDGE ( 'NONE', *, *, #289, .T. ) ;
#304 = ADVANCED_FACE ( 'NONE', ( #288, #197 ), #148, .T. ) ;
#305 = CARTESIAN_POINT ( 'NONE',  ( -0.5000000000000000000, 0.000000000000000000, 1.399999999999998579 ) ) ;
#306 = CARTESIAN_POINT ( 'NONE',  ( 0.000000000000000000, 0.000000000000000000, 1.399999999999998579 ) ) ;
#307 = CC_DESIGN_APPROVAL ( #296, ( #265 ) ) ;
ENDSEC;
END-ISO-10303-21;
