ISO-10303-21;
HEADER;
FILE_DESCRIPTION (( 'STEP AP203' ),
    '1' );
FILE_NAME ('c8ab.STEP',
    '2022-07-07T09:58:14',
    ( '' ),
    ( '' ),
    'SwSTEP 2.0',
    'SolidWorks 2019',
    '' );
FILE_SCHEMA (( 'CONFIG_CONTROL_DESIGN' ));
ENDSEC;

DATA;
#1 = EDGE_LOOP ( 'NONE', ( #61, #273, #58, #143 ) ) ;
#2 = FACE_OUTER_BOUND ( 'NONE', #256, .T. ) ;
#3 = EDGE_CURVE ( 'NONE', #201, #48, #218, .T. ) ;
#4 = CIRCLE ( 'NONE', #178, 0.1999999999999996503 ) ;
#5 = EDGE_LOOP ( 'NONE', ( #20, #18, #67, #45 ) ) ;
#6 = EDGE_CURVE ( 'NONE', #72, #95, #128, .T. ) ;
#7 = ORIENTED_EDGE ( 'NONE', *, *, #3, .F. ) ;
#8 = COORDINATED_UNIVERSAL_TIME_OFFSET ( 1, 0, .AHEAD. ) ;
#9 = DIRECTION ( 'NONE',  ( 0.000000000000000000, 0.000000000000000000, 1.000000000000000000 ) ) ;
#10 = CARTESIAN_POINT ( 'NONE',  ( -4.250000000000000000, 0.000000000000000000, 505.0000000000000000 ) ) ;
#11 = ORIENTED_EDGE ( 'NONE', *, *, #50, .F. ) ;
#12 = CARTESIAN_POINT ( 'NONE',  ( 7.000000000000000000, 8.572527594031473190E-16, 5.000000000000000000 ) ) ;
#13 = DIRECTION ( 'NONE',  ( 1.000000000000000000, 0.000000000000000000, 0.000000000000000000 ) ) ;
#14 = PERSON_AND_ORGANIZATION ( #225, #163 ) ;
#15 = CARTESIAN_POINT ( 'NONE',  ( 4.250000000000000000, 5.204748896376250699E-16, 505.0000000000000000 ) ) ;
#16 = APPROVAL_STATUS ( 'not_yet_approved' ) ;
#17 = CARTESIAN_POINT ( 'NONE',  ( 0.000000000000000000, 0.000000000000000000, 0.000000000000000000 ) ) ;
#18 = ORIENTED_EDGE ( 'NONE', *, *, #6, .F. ) ;
#19 = CIRCLE ( 'NONE', #251, 4.250000000000000000 ) ;
#20 = ORIENTED_EDGE ( 'NONE', *, *, #246, .F. ) ;
#21 = PERSON_AND_ORGANIZATION ( #225, #163 ) ;
#22 = EDGE_LOOP ( 'NONE', ( #296, #120, #93, #214 ) ) ;
#23 = AXIS2_PLACEMENT_3D ( 'NONE', #87, #284, #38 ) ;
#24 = ORIENTED_EDGE ( 'NONE', *, *, #140, .T. ) ;
#25 = ADVANCED_FACE ( 'NONE', ( #245 ), #217, .T. ) ;
#26 = DIRECTION ( 'NONE',  ( 0.000000000000000000, 0.000000000000000000, 1.000000000000000000 ) ) ;
#27 = CIRCLE ( 'NONE', #244, 7.000000000000000000 ) ;
#28 = AXIS2_PLACEMENT_3D ( 'NONE', #228, #88, #78 ) ;
#29 = DIRECTION ( 'NONE',  ( -0.000000000000000000, -0.000000000000000000, -1.000000000000000000 ) ) ;
#30 = CC_DESIGN_SECURITY_CLASSIFICATION ( #51, ( #221 ) ) ;
#31 = ORIENTED_EDGE ( 'NONE', *, *, #105, .F. ) ;
#32 = ADVANCED_FACE ( 'NONE', ( #2 ), #307, .T. ) ;
#33 = APPROVAL_ROLE ( '' ) ;
#34 = CARTESIAN_POINT ( 'NONE',  ( 4.250000000000000000, 5.204748896376250699E-16, 5.199999999999982414 ) ) ;
#35 = DIRECTION ( 'NONE',  ( 0.000000000000000000, 0.000000000000000000, 1.000000000000000000 ) ) ;
#36 = CARTESIAN_POINT ( 'NONE',  ( 0.000000000000000000, 0.000000000000000000, 505.0000000000000000 ) ) ;
#37 = ORIENTED_EDGE ( 'NONE', *, *, #50, .T. ) ;
#38 = DIRECTION ( 'NONE',  ( 1.000000000000000000, 0.000000000000000000, 0.000000000000000000 ) ) ;
#39 = TOROIDAL_SURFACE ( 'NONE', #46, 4.450000000000000178, 0.2000000000000000111 ) ;
#40 = LOCAL_TIME ( 11, 58, 14.00000000000000000, #204 ) ;
#41 = CARTESIAN_POINT ( 'NONE',  ( 0.000000000000000000, 0.000000000000000000, 5.000000000000000000 ) ) ;
#42 = DATE_AND_TIME ( #283, #40 ) ;
#43 = ORIENTED_EDGE ( 'NONE', *, *, #52, .F. ) ;
#44 = AXIS2_PLACEMENT_3D ( 'NONE', #145, #192, #121 ) ;
#45 = ORIENTED_EDGE ( 'NONE', *, *, #167, .F. ) ;
#46 = AXIS2_PLACEMENT_3D ( 'NONE', #240, #9, #302 ) ;
#47 = CALENDAR_DATE ( 2022, 7, 7 ) ;
#48 = VERTEX_POINT ( 'NONE', #68 ) ;
#49 = DIRECTION ( 'NONE',  ( 1.000000000000000000, 0.000000000000000000, -0.000000000000000000 ) ) ;
#50 = EDGE_CURVE ( 'NONE', #166, #95, #168, .T. ) ;
#51 = SECURITY_CLASSIFICATION ( '', '', #115 ) ;
#52 = EDGE_CURVE ( 'NONE', #48, #201, #27, .T. ) ;
#53 = AXIS2_PLACEMENT_3D ( 'NONE', #186, #80, #181 ) ;
#54 = PRODUCT_DEFINITION ( 'NEZNÁMÝ', '', #221, #227 ) ;
#55 = DIRECTION ( 'NONE',  ( 0.000000000000000000, 0.000000000000000000, 1.000000000000000000 ) ) ;
#56 = CARTESIAN_POINT ( 'NONE',  ( 0.000000000000000000, 0.000000000000000000, 5.000000000000000000 ) ) ;
#57 = CARTESIAN_POINT ( 'NONE',  ( -7.000000000000000000, 0.000000000000000000, 0.000000000000000000 ) ) ;
#58 = ORIENTED_EDGE ( 'NONE', *, *, #52, .T. ) ;
#59 = CARTESIAN_POINT ( 'NONE',  ( 0.000000000000000000, 0.000000000000000000, 0.000000000000000000 ) ) ;
#60 = PLANE ( 'NONE',  #220 ) ;
#61 = ORIENTED_EDGE ( 'NONE', *, *, #140, .F. ) ;
#62 =( NAMED_UNIT ( * ) PLANE_ANGLE_UNIT ( ) SI_UNIT ( $, .RADIAN. ) );
#63 = DIRECTION ( 'NONE',  ( -0.000000000000000000, -0.000000000000000000, -1.000000000000000000 ) ) ;
#64 = DIRECTION ( 'NONE',  ( 0.000000000000000000, -1.000000000000000000, 0.000000000000000000 ) ) ;
#65 = CIRCLE ( 'NONE', #176, 4.250000000000000000 ) ;
#66 = SHAPE_DEFINITION_REPRESENTATION ( #96, #125 ) ;
#67 = ORIENTED_EDGE ( 'NONE', *, *, #189, .T. ) ;
#68 = CARTESIAN_POINT ( 'NONE',  ( 7.000000000000000000, 8.572527594031473190E-16, 0.000000000000000000 ) ) ;
#69 = EDGE_CURVE ( 'NONE', #194, #85, #224, .T. ) ;
#70 = VECTOR ( 'NONE', #63, 1000.000000000000000 ) ;
#71 = APPROVAL_ROLE ( '' ) ;
#72 = VERTEX_POINT ( 'NONE', #34 ) ;
#73 = LOCAL_TIME ( 11, 58, 14.00000000000000000, #209 ) ;
#74 = ORIENTED_EDGE ( 'NONE', *, *, #6, .T. ) ;
#75 = PRODUCT ( 'c8ab', 'c8ab', '', ( #180 ) ) ;
#76 = TOROIDAL_SURFACE ( 'NONE', #122, 4.450000000000000178, 0.2000000000000000111 ) ;
#77 = APPROVAL_PERSON_ORGANIZATION ( #21, #103, #71 ) ;
#78 = DIRECTION ( 'NONE',  ( 1.000000000000000000, 0.000000000000000000, 0.000000000000000000 ) ) ;
#79 = CARTESIAN_POINT ( 'NONE',  ( -4.450000000000000178, 5.449678256205721784E-16, 5.199999999999982414 ) ) ;
#80 = DIRECTION ( 'NONE',  ( -0.000000000000000000, -0.000000000000000000, -1.000000000000000000 ) ) ;
#81 = ORIENTED_EDGE ( 'NONE', *, *, #69, .T. ) ;
#82 = AXIS2_PLACEMENT_3D ( 'NONE', #83, #282, #191 ) ;
#83 = CARTESIAN_POINT ( 'NONE',  ( 0.000000000000000000, 0.000000000000000000, 5.000000000000000000 ) ) ;
#84 = LOCAL_TIME ( 11, 58, 14.00000000000000000, #8 ) ;
#85 = VERTEX_POINT ( 'NONE', #134 ) ;
#86 = CALENDAR_DATE ( 2022, 7, 7 ) ;
#87 = CARTESIAN_POINT ( 'NONE',  ( 0.000000000000000000, 0.000000000000000000, 5.000000000000000000 ) ) ;
#88 = DIRECTION ( 'NONE',  ( 0.000000000000000000, 0.000000000000000000, 1.000000000000000000 ) ) ;
#89 = FACE_BOUND ( 'NONE', #184, .T. ) ;
#90 = AXIS2_PLACEMENT_3D ( 'NONE', #171, #289, #269 ) ;
#91 = APPLICATION_CONTEXT ( 'configuration controlled 3d designs of mechanical parts and assemblies' ) ;
#92 = AXIS2_PLACEMENT_3D ( 'NONE', #36, #29, #113 ) ;
#93 = ORIENTED_EDGE ( 'NONE', *, *, #118, .T. ) ;
#94 = APPROVAL_DATE_TIME ( #162, #103 ) ;
#95 = VERTEX_POINT ( 'NONE', #279 ) ;
#96 = PRODUCT_DEFINITION_SHAPE ( 'NONE', 'NONE',  #54 ) ;
#97 = CARTESIAN_POINT ( 'NONE',  ( -4.250000000000000000, 0.000000000000000000, 505.0000000000000000 ) ) ;
#98 = LOCAL_TIME ( 11, 58, 14.00000000000000000, #193 ) ;
#99 = CC_DESIGN_PERSON_AND_ORGANIZATION_ASSIGNMENT ( #213, #211, ( #221 ) ) ;
#100 = MANIFOLD_SOLID_BREP ( 'Zaoblit1', #287 ) ;
#101 = CC_DESIGN_PERSON_AND_ORGANIZATION_ASSIGNMENT ( #254, #129, ( #75 ) ) ;
#102 = AXIS2_PLACEMENT_3D ( 'NONE', #249, #266, #219 ) ;
#103 = APPROVAL ( #16, 'NEURÈENÝ' ) ;
#104 = CIRCLE ( 'NONE', #144, 7.000000000000000000 ) ;
#105 = EDGE_CURVE ( 'NONE', #259, #72, #190, .T. ) ;
#106 = ORIENTED_EDGE ( 'NONE', *, *, #246, .T. ) ;
#107 = PERSON_AND_ORGANIZATION_ROLE ( 'creator' ) ;
#108 = CARTESIAN_POINT ( 'NONE',  ( 4.450000000000000178, 0.000000000000000000, 4.999999999999991118 ) ) ;
#109 = APPROVAL_DATE_TIME ( #239, #299 ) ;
#110 = CARTESIAN_POINT ( 'NONE',  ( 0.000000000000000000, 0.000000000000000000, 5.000000000000000000 ) ) ;
#111 = ORIENTED_EDGE ( 'NONE', *, *, #189, .F. ) ;
#112 = PERSON_AND_ORGANIZATION ( #225, #163 ) ;
#113 = DIRECTION ( 'NONE',  ( -1.000000000000000000, 0.000000000000000000, 0.000000000000000000 ) ) ;
#114 = CARTESIAN_POINT ( 'NONE',  ( -7.000000000000000000, 0.000000000000000000, 5.000000000000000000 ) ) ;
#115 = SECURITY_CLASSIFICATION_LEVEL ( 'unclassified' ) ;
#116 = FACE_OUTER_BOUND ( 'NONE', #216, .T. ) ;
#117 = PERSON_AND_ORGANIZATION_ROLE ( 'creator' ) ;
#118 = EDGE_CURVE ( 'NONE', #123, #201, #202, .T. ) ;
#119 = EDGE_LOOP ( 'NONE', ( #146, #24 ) ) ;
#120 = ORIENTED_EDGE ( 'NONE', *, *, #294, .F. ) ;
#121 = DIRECTION ( 'NONE',  ( 1.000000000000000000, 0.000000000000000000, 0.000000000000000000 ) ) ;
#122 = AXIS2_PLACEMENT_3D ( 'NONE', #300, #234, #130 ) ;
#123 = VERTEX_POINT ( 'NONE', #114 ) ;
#124 = CC_DESIGN_PERSON_AND_ORGANIZATION_ASSIGNMENT ( #306, #117, ( #221 ) ) ;
#125 = ADVANCED_BREP_SHAPE_REPRESENTATION ( 'c8ab', ( #100, #198 ), #182 ) ;
#126 = VECTOR ( 'NONE', #278, 1000.000000000000000 ) ;
#127 = CARTESIAN_POINT ( 'NONE',  ( 0.000000000000000000, 0.000000000000000000, 505.0000000000000000 ) ) ;
#128 = CIRCLE ( 'NONE', #44, 4.250000000000000000 ) ;
#129 = PERSON_AND_ORGANIZATION_ROLE ( 'design_owner' ) ;
#130 = DIRECTION ( 'NONE',  ( 1.000000000000000000, 0.000000000000000000, 0.000000000000000000 ) ) ;
#131 = EDGE_LOOP ( 'NONE', ( #7, #43 ) ) ;
#132 =( LENGTH_UNIT ( ) NAMED_UNIT ( * ) SI_UNIT ( .MILLI., .METRE. ) );
#133 = ADVANCED_FACE ( 'NONE', ( #116 ), #76, .F. ) ;
#134 = CARTESIAN_POINT ( 'NONE',  ( -4.450000000000000178, 5.449678256205721784E-16, 4.999999999999991118 ) ) ;
#135 = ORIENTED_EDGE ( 'NONE', *, *, #105, .T. ) ;
#136 = DIRECTION ( 'NONE',  ( 1.000000000000000000, 0.000000000000000000, 0.000000000000000000 ) ) ;
#137 = APPROVAL_ROLE ( '' ) ;
#138 = CARTESIAN_POINT ( 'NONE',  ( 7.000000000000000000, 8.572527594031473190E-16, 5.000000000000000000 ) ) ;
#139 = DIRECTION ( 'NONE',  ( -0.000000000000000000, -0.000000000000000000, -1.000000000000000000 ) ) ;
#140 = EDGE_CURVE ( 'NONE', #248, #123, #161, .T. ) ;
#141 = ORIENTED_EDGE ( 'NONE', *, *, #169, .T. ) ;
#142 = CALENDAR_DATE ( 2022, 7, 7 ) ;
#143 = ORIENTED_EDGE ( 'NONE', *, *, #118, .F. ) ;
#144 = AXIS2_PLACEMENT_3D ( 'NONE', #56, #200, #290 ) ;
#145 = CARTESIAN_POINT ( 'NONE',  ( 0.000000000000000000, 0.000000000000000000, 5.199999999999982414 ) ) ;
#146 = ORIENTED_EDGE ( 'NONE', *, *, #294, .T. ) ;
#147 = CC_DESIGN_DATE_AND_TIME_ASSIGNMENT ( #281, #292, ( #54 ) ) ;
#148 = AXIS2_PLACEMENT_3D ( 'NONE', #255, #139, #212 ) ;
#149 = CIRCLE ( 'NONE', #28, 4.250000000000000000 ) ;
#150 = UNCERTAINTY_MEASURE_WITH_UNIT (LENGTH_MEASURE( 1.000000000000000082E-05 ), #132, 'distance_accuracy_value', 'NONE');
#151 = DIRECTION ( 'NONE',  ( -1.000000000000000000, 1.224646799147353454E-16, 0.000000000000000000 ) ) ;
#152 = DIRECTION ( 'NONE',  ( 1.000000000000000000, 0.000000000000000000, 0.000000000000000000 ) ) ;
#153 = CYLINDRICAL_SURFACE ( 'NONE', #53, 4.250000000000000000 ) ;
#154 = CC_DESIGN_APPROVAL ( #179, ( #221 ) ) ;
#155 = LINE ( 'NONE', #138, #126 ) ;
#156 = ORIENTED_EDGE ( 'NONE', *, *, #303, .F. ) ;
#157 = FACE_OUTER_BOUND ( 'NONE', #131, .T. ) ;
#158 = CARTESIAN_POINT ( 'NONE',  ( 0.000000000000000000, 0.000000000000000000, 505.0000000000000000 ) ) ;
#159 = ORIENTED_EDGE ( 'NONE', *, *, #253, .T. ) ;
#160 =( NAMED_UNIT ( * ) SI_UNIT ( $, .STERADIAN. ) SOLID_ANGLE_UNIT ( ) );
#161 = CIRCLE ( 'NONE', #23, 7.000000000000000000 ) ;
#162 = DATE_AND_TIME ( #47, #98 ) ;
#163 = ORGANIZATION ( 'NEURÈENÝ', 'NEURÈENÝ', '' ) ;
#164 = DIRECTION ( 'NONE',  ( 0.000000000000000000, 0.000000000000000000, 1.000000000000000000 ) ) ;
#165 = DATE_TIME_ROLE ( 'classification_date' ) ;
#166 = VERTEX_POINT ( 'NONE', #10 ) ;
#167 = EDGE_CURVE ( 'NONE', #85, #194, #280, .T. ) ;
#168 = LINE ( 'NONE', #97, #295 ) ;
#169 = EDGE_CURVE ( 'NONE', #166, #259, #19, .T. ) ;
#170 = PERSON_AND_ORGANIZATION ( #225, #163 ) ;
#171 = CARTESIAN_POINT ( 'NONE',  ( 0.000000000000000000, 0.000000000000000000, 0.000000000000000000 ) ) ;
#172 = AXIS2_PLACEMENT_3D ( 'NONE', #262, #26, #297 ) ;
#173 = APPROVAL_PERSON_ORGANIZATION ( #274, #179, #33 ) ;
#174 = ADVANCED_FACE ( 'NONE', ( #298 ), #153, .T. ) ;
#175 = ORIENTED_EDGE ( 'NONE', *, *, #253, .F. ) ;
#176 = AXIS2_PLACEMENT_3D ( 'NONE', #127, #35, #252 ) ;
#177 = ADVANCED_FACE ( 'NONE', ( #275 ), #236, .T. ) ;
#178 = AXIS2_PLACEMENT_3D ( 'NONE', #208, #64, #231 ) ;
#179 = APPROVAL ( #257, 'NEURÈENÝ' ) ;
#180 = MECHANICAL_CONTEXT ( 'NONE', #91, 'mechanical' ) ;
#181 = DIRECTION ( 'NONE',  ( -1.000000000000000000, 0.000000000000000000, 0.000000000000000000 ) ) ;
#182 =( GEOMETRIC_REPRESENTATION_CONTEXT ( 3 ) GLOBAL_UNCERTAINTY_ASSIGNED_CONTEXT ( ( #150 ) ) GLOBAL_UNIT_ASSIGNED_CONTEXT ( ( #132, #62, #160 ) ) REPRESENTATION_CONTEXT ( 'NONE', 'WORKASPACE' ) );
#183 = DIRECTION ( 'NONE',  ( 1.000000000000000000, 0.000000000000000000, -0.000000000000000000 ) ) ;
#184 = EDGE_LOOP ( 'NONE', ( #81, #265 ) ) ;
#185 = DIRECTION ( 'NONE',  ( -1.000000000000000000, 0.000000000000000000, 0.000000000000000000 ) ) ;
#186 = CARTESIAN_POINT ( 'NONE',  ( 0.000000000000000000, 0.000000000000000000, 505.0000000000000000 ) ) ;
#187 = PRODUCT_RELATED_PRODUCT_CATEGORY ( 'detail', '', ( #75 ) ) ;
#188 = CALENDAR_DATE ( 2022, 7, 7 ) ;
#189 = EDGE_CURVE ( 'NONE', #72, #194, #4, .T. ) ;
#190 = LINE ( 'NONE', #15, #70 ) ;
#191 = DIRECTION ( 'NONE',  ( 1.000000000000000000, 0.000000000000000000, 0.000000000000000000 ) ) ;
#192 = DIRECTION ( 'NONE',  ( 0.000000000000000000, 0.000000000000000000, 1.000000000000000000 ) ) ;
#193 = COORDINATED_UNIVERSAL_TIME_OFFSET ( 1, 0, .AHEAD. ) ;
#194 = VERTEX_POINT ( 'NONE', #108 ) ;
#195 = ORIENTED_EDGE ( 'NONE', *, *, #169, .F. ) ;
#196 = APPLICATION_CONTEXT ( 'configuration controlled 3d designs of mechanical parts and assemblies' ) ;
#197 = ADVANCED_FACE ( 'NONE', ( #263 ), #39, .F. ) ;
#198 = AXIS2_PLACEMENT_3D ( 'NONE', #59, #55, #152 ) ;
#199 = CIRCLE ( 'NONE', #305, 0.1999999999999996503 ) ;
#200 = DIRECTION ( 'NONE',  ( 0.000000000000000000, 0.000000000000000000, 1.000000000000000000 ) ) ;
#201 = VERTEX_POINT ( 'NONE', #57 ) ;
#202 = LINE ( 'NONE', #210, #271 ) ;
#203 = EDGE_CURVE ( 'NONE', #248, #48, #155, .T. ) ;
#204 = COORDINATED_UNIVERSAL_TIME_OFFSET ( 1, 0, .AHEAD. ) ;
#205 = DIRECTION ( 'NONE',  ( 0.000000000000000000, 0.000000000000000000, 1.000000000000000000 ) ) ;
#206 = AXIS2_PLACEMENT_3D ( 'NONE', #41, #242, #185 ) ;
#207 = CARTESIAN_POINT ( 'NONE',  ( 4.250000000000000000, 5.204748896376250699E-16, 505.0000000000000000 ) ) ;
#208 = CARTESIAN_POINT ( 'NONE',  ( 4.450000000000000178, 0.000000000000000000, 5.199999999999982414 ) ) ;
#209 = COORDINATED_UNIVERSAL_TIME_OFFSET ( 1, 0, .AHEAD. ) ;
#210 = CARTESIAN_POINT ( 'NONE',  ( -7.000000000000000000, 0.000000000000000000, 5.000000000000000000 ) ) ;
#211 = PERSON_AND_ORGANIZATION_ROLE ( 'design_supplier' ) ;
#212 = DIRECTION ( 'NONE',  ( 1.000000000000000000, 0.000000000000000000, 0.000000000000000000 ) ) ;
#213 = PERSON_AND_ORGANIZATION ( #225, #163 ) ;
#214 = ORIENTED_EDGE ( 'NONE', *, *, #3, .T. ) ;
#215 = DATE_AND_TIME ( #142, #250 ) ;
#216 = EDGE_LOOP ( 'NONE', ( #156, #106, #232, #111 ) ) ;
#217 = CYLINDRICAL_SURFACE ( 'NONE', #102, 7.000000000000000000 ) ;
#218 = CIRCLE ( 'NONE', #90, 7.000000000000000000 ) ;
#219 = DIRECTION ( 'NONE',  ( -1.000000000000000000, 0.000000000000000000, 0.000000000000000000 ) ) ;
#220 = AXIS2_PLACEMENT_3D ( 'NONE', #110, #205, #183 ) ;
#221 = PRODUCT_DEFINITION_FORMATION_WITH_SPECIFIED_SOURCE ( 'LIBOVOLNÝ', '', #75, .NOT_KNOWN. ) ;
#222 = CC_DESIGN_DATE_AND_TIME_ASSIGNMENT ( #215, #165, ( #51 ) ) ;
#223 = ADVANCED_FACE ( 'NONE', ( #89, #258 ), #60, .T. ) ;
#224 = CIRCLE ( 'NONE', #148, 4.450000000000000178 ) ;
#225 = PERSON ( 'NEURÈENÝ', 'NEURÈENÝ', 'NEURÈENÝ', ('NEURÈENÝ'), ('NEURÈENÝ'), ('NEURÈENÝ') ) ;
#226 = AXIS2_PLACEMENT_3D ( 'NONE', #270, #285, #49 ) ;
#227 = DESIGN_CONTEXT ( 'detailed design', #196, 'design' ) ;
#228 = CARTESIAN_POINT ( 'NONE',  ( 0.000000000000000000, 0.000000000000000000, 5.199999999999982414 ) ) ;
#229 = ADVANCED_FACE ( 'NONE', ( #261 ), #264, .T. ) ;
#230 = APPROVAL_STATUS ( 'not_yet_approved' ) ;
#231 = DIRECTION ( 'NONE',  ( 0.000000000000000000, 0.000000000000000000, -1.000000000000000000 ) ) ;
#232 = ORIENTED_EDGE ( 'NONE', *, *, #69, .F. ) ;
#233 = CC_DESIGN_PERSON_AND_ORGANIZATION_ASSIGNMENT ( #170, #241, ( #51 ) ) ;
#234 = DIRECTION ( 'NONE',  ( 0.000000000000000000, 0.000000000000000000, 1.000000000000000000 ) ) ;
#235 = PLANE ( 'NONE',  #172 ) ;
#236 = CYLINDRICAL_SURFACE ( 'NONE', #92, 4.250000000000000000 ) ;
#237 = ADVANCED_FACE ( 'NONE', ( #157 ), #235, .F. ) ;
#238 = APPROVAL_PERSON_ORGANIZATION ( #112, #299, #137 ) ;
#239 = DATE_AND_TIME ( #86, #84 ) ;
#240 = CARTESIAN_POINT ( 'NONE',  ( 0.000000000000000000, 0.000000000000000000, 5.199999999999982414 ) ) ;
#241 = PERSON_AND_ORGANIZATION_ROLE ( 'classification_officer' ) ;
#242 = DIRECTION ( 'NONE',  ( -0.000000000000000000, -0.000000000000000000, -1.000000000000000000 ) ) ;
#243 = APPROVAL_DATE_TIME ( #42, #179 ) ;
#244 = AXIS2_PLACEMENT_3D ( 'NONE', #17, #164, #136 ) ;
#245 = FACE_OUTER_BOUND ( 'NONE', #1, .T. ) ;
#246 = EDGE_CURVE ( 'NONE', #95, #85, #199, .T. ) ;
#247 = DIRECTION ( 'NONE',  ( -0.000000000000000000, -0.000000000000000000, -1.000000000000000000 ) ) ;
#248 = VERTEX_POINT ( 'NONE', #12 ) ;
#249 = CARTESIAN_POINT ( 'NONE',  ( 0.000000000000000000, 0.000000000000000000, 5.000000000000000000 ) ) ;
#250 = LOCAL_TIME ( 11, 58, 14.00000000000000000, #267 ) ;
#251 = AXIS2_PLACEMENT_3D ( 'NONE', #158, #293, #13 ) ;
#252 = DIRECTION ( 'NONE',  ( 1.000000000000000000, 0.000000000000000000, 0.000000000000000000 ) ) ;
#253 = EDGE_CURVE ( 'NONE', #259, #166, #65, .T. ) ;
#254 = PERSON_AND_ORGANIZATION ( #225, #163 ) ;
#255 = CARTESIAN_POINT ( 'NONE',  ( 0.000000000000000000, 0.000000000000000000, 5.000000000000000000 ) ) ;
#256 = EDGE_LOOP ( 'NONE', ( #141, #159 ) ) ;
#257 = APPROVAL_STATUS ( 'not_yet_approved' ) ;
#258 = FACE_OUTER_BOUND ( 'NONE', #119, .T. ) ;
#259 = VERTEX_POINT ( 'NONE', #207 ) ;
#260 = DIRECTION ( 'NONE',  ( 1.224646799147353207E-16, 1.000000000000000000, -0.000000000000000000 ) ) ;
#261 = FACE_OUTER_BOUND ( 'NONE', #22, .T. ) ;
#262 = CARTESIAN_POINT ( 'NONE',  ( 0.000000000000000000, 0.000000000000000000, 0.000000000000000000 ) ) ;
#263 = FACE_OUTER_BOUND ( 'NONE', #5, .T. ) ;
#264 = CYLINDRICAL_SURFACE ( 'NONE', #206, 7.000000000000000000 ) ;
#265 = ORIENTED_EDGE ( 'NONE', *, *, #167, .T. ) ;
#266 = DIRECTION ( 'NONE',  ( -0.000000000000000000, -0.000000000000000000, -1.000000000000000000 ) ) ;
#267 = COORDINATED_UNIVERSAL_TIME_OFFSET ( 1, 0, .AHEAD. ) ;
#268 = CC_DESIGN_APPROVAL ( #299, ( #54 ) ) ;
#269 = DIRECTION ( 'NONE',  ( 1.000000000000000000, 0.000000000000000000, 0.000000000000000000 ) ) ;
#270 = CARTESIAN_POINT ( 'NONE',  ( 0.000000000000000000, 0.000000000000000000, 505.0000000000000000 ) ) ;
#271 = VECTOR ( 'NONE', #304, 1000.000000000000000 ) ;
#272 = CC_DESIGN_APPROVAL ( #103, ( #51 ) ) ;
#273 = ORIENTED_EDGE ( 'NONE', *, *, #203, .T. ) ;
#274 = PERSON_AND_ORGANIZATION ( #225, #163 ) ;
#275 = FACE_OUTER_BOUND ( 'NONE', #288, .T. ) ;
#276 = EDGE_LOOP ( 'NONE', ( #175, #135, #74, #11 ) ) ;
#277 = APPLICATION_PROTOCOL_DEFINITION ( 'international standard', 'config_control_design', 1994, #196 ) ;
#278 = DIRECTION ( 'NONE',  ( -0.000000000000000000, -0.000000000000000000, -1.000000000000000000 ) ) ;
#279 = CARTESIAN_POINT ( 'NONE',  ( -4.250000000000000000, 0.000000000000000000, 5.199999999999982414 ) ) ;
#280 = CIRCLE ( 'NONE', #82, 4.450000000000000178 ) ;
#281 = DATE_AND_TIME ( #188, #73 ) ;
#282 = DIRECTION ( 'NONE',  ( -0.000000000000000000, -0.000000000000000000, -1.000000000000000000 ) ) ;
#283 = CALENDAR_DATE ( 2022, 7, 7 ) ;
#284 = DIRECTION ( 'NONE',  ( 0.000000000000000000, 0.000000000000000000, 1.000000000000000000 ) ) ;
#285 = DIRECTION ( 'NONE',  ( 0.000000000000000000, 0.000000000000000000, 1.000000000000000000 ) ) ;
#286 = CC_DESIGN_PERSON_AND_ORGANIZATION_ASSIGNMENT ( #14, #107, ( #54 ) ) ;
#287 = CLOSED_SHELL ( 'NONE', ( #133, #174, #25, #229, #223, #237, #177, #32, #197 ) ) ;
#288 = EDGE_LOOP ( 'NONE', ( #31, #195, #37, #291 ) ) ;
#289 = DIRECTION ( 'NONE',  ( 0.000000000000000000, 0.000000000000000000, 1.000000000000000000 ) ) ;
#290 = DIRECTION ( 'NONE',  ( 1.000000000000000000, 0.000000000000000000, 0.000000000000000000 ) ) ;
#291 = ORIENTED_EDGE ( 'NONE', *, *, #303, .T. ) ;
#292 = DATE_TIME_ROLE ( 'creation_date' ) ;
#293 = DIRECTION ( 'NONE',  ( 0.000000000000000000, 0.000000000000000000, 1.000000000000000000 ) ) ;
#294 = EDGE_CURVE ( 'NONE', #123, #248, #104, .T. ) ;
#295 = VECTOR ( 'NONE', #247, 1000.000000000000000 ) ;
#296 = ORIENTED_EDGE ( 'NONE', *, *, #203, .F. ) ;
#297 = DIRECTION ( 'NONE',  ( 1.000000000000000000, 0.000000000000000000, -0.000000000000000000 ) ) ;
#298 = FACE_OUTER_BOUND ( 'NONE', #276, .T. ) ;
#299 = APPROVAL ( #230, 'NEURÈENÝ' ) ;
#300 = CARTESIAN_POINT ( 'NONE',  ( 0.000000000000000000, 0.000000000000000000, 5.199999999999982414 ) ) ;
#301 = APPLICATION_PROTOCOL_DEFINITION ( 'international standard', 'config_control_design', 1994, #91 ) ;
#302 = DIRECTION ( 'NONE',  ( 1.000000000000000000, 0.000000000000000000, 0.000000000000000000 ) ) ;
#303 = EDGE_CURVE ( 'NONE', #95, #72, #149, .T. ) ;
#304 = DIRECTION ( 'NONE',  ( -0.000000000000000000, -0.000000000000000000, -1.000000000000000000 ) ) ;
#305 = AXIS2_PLACEMENT_3D ( 'NONE', #79, #260, #151 ) ;
#306 = PERSON_AND_ORGANIZATION ( #225, #163 ) ;
#307 = PLANE ( 'NONE',  #226 ) ;
ENDSEC;
END-ISO-10303-21;
