ISO-10303-21;
HEADER;
FILE_DESCRIPTION (( 'STEP AP203' ),
    '1' );
FILE_NAME ('1373.STEP',
    '2022-07-07T10:15:06',
    ( '' ),
    ( '' ),
    'SwSTEP 2.0',
    'SolidWorks 2019',
    '' );
FILE_SCHEMA (( 'CONFIG_CONTROL_DESIGN' ));
ENDSEC;

DATA;
#1 = CARTESIAN_POINT ( 'NONE',  ( 0.000000000000000000, 0.000000000000000000, 3.000000000000000000 ) ) ;
#2 = PERSON_AND_ORGANIZATION ( #214, #163 ) ;
#3 = LINE ( 'NONE', #242, #78 ) ;
#4 = DIRECTION ( 'NONE',  ( -0.000000000000000000, -0.000000000000000000, -1.000000000000000000 ) ) ;
#5 = DIRECTION ( 'NONE',  ( 1.000000000000000000, 0.000000000000000000, 0.000000000000000000 ) ) ;
#6 = TOROIDAL_SURFACE ( 'NONE', #291, 2.949999999999999734, 0.2000000000000000111 ) ;
#7 = EDGE_CURVE ( 'NONE', #175, #299, #82, .T. ) ;
#8 = AXIS2_PLACEMENT_3D ( 'NONE', #237, #27, #257 ) ;
#9 = EDGE_LOOP ( 'NONE', ( #101, #25 ) ) ;
#10 = ORIENTED_EDGE ( 'NONE', *, *, #183, .F. ) ;
#11 = CC_DESIGN_DATE_AND_TIME_ASSIGNMENT ( #264, #26, ( #273 ) ) ;
#12 = DIRECTION ( 'NONE',  ( -0.000000000000000000, -0.000000000000000000, -1.000000000000000000 ) ) ;
#13 = VERTEX_POINT ( 'NONE', #282 ) ;
#14 = EDGE_CURVE ( 'NONE', #13, #129, #246, .T. ) ;
#15 = CARTESIAN_POINT ( 'NONE',  ( -2.750000000000000000, 0.000000000000000000, 3.199999999999980638 ) ) ;
#16 = ORIENTED_EDGE ( 'NONE', *, *, #142, .F. ) ;
#17 = CC_DESIGN_PERSON_AND_ORGANIZATION_ASSIGNMENT ( #208, #55, ( #153 ) ) ;
#18 = FACE_OUTER_BOUND ( 'NONE', #9, .T. ) ;
#19 = LOCAL_TIME ( 12, 15, 6.000000000000000000, #228 ) ;
#20 = LOCAL_TIME ( 12, 15, 6.000000000000000000, #46 ) ;
#21 = APPROVAL ( #31, 'NEURÈENÝ' ) ;
#22 = CARTESIAN_POINT ( 'NONE',  ( 0.000000000000000000, 0.000000000000000000, 3.199999999999980638 ) ) ;
#23 = DIRECTION ( 'NONE',  ( 1.000000000000000000, 0.000000000000000000, 0.000000000000000000 ) ) ;
#24 = EDGE_CURVE ( 'NONE', #129, #13, #276, .T. ) ;
#25 = ORIENTED_EDGE ( 'NONE', *, *, #14, .T. ) ;
#26 = DATE_TIME_ROLE ( 'classification_date' ) ;
#27 = DIRECTION ( 'NONE',  ( -0.000000000000000000, -0.000000000000000000, -1.000000000000000000 ) ) ;
#28 = CLOSED_SHELL ( 'NONE', ( #131, #97, #162, #288, #148, #84, #58, #133, #210 ) ) ;
#29 = DIRECTION ( 'NONE',  ( 1.000000000000000000, 0.000000000000000000, 0.000000000000000000 ) ) ;
#30 = CARTESIAN_POINT ( 'NONE',  ( 2.949999999999999734, 0.000000000000000000, 3.199999999999980638 ) ) ;
#31 = APPROVAL_STATUS ( 'not_yet_approved' ) ;
#32 = DIRECTION ( 'NONE',  ( 0.000000000000000000, 0.000000000000000000, 1.000000000000000000 ) ) ;
#33 = PRODUCT_DEFINITION_SHAPE ( 'NONE', 'NONE',  #44 ) ;
#34 = UNCERTAINTY_MEASURE_WITH_UNIT (LENGTH_MEASURE( 1.000000000000000082E-05 ), #47, 'distance_accuracy_value', 'NONE');
#35 = CIRCLE ( 'NONE', #194, 5.000000000000000000 ) ;
#36 = ORIENTED_EDGE ( 'NONE', *, *, #252, .F. ) ;
#37 = ORIENTED_EDGE ( 'NONE', *, *, #108, .T. ) ;
#38 = DIRECTION ( 'NONE',  ( -0.000000000000000000, -0.000000000000000000, -1.000000000000000000 ) ) ;
#39 = ORIENTED_EDGE ( 'NONE', *, *, #230, .T. ) ;
#40 = DIRECTION ( 'NONE',  ( 0.000000000000000000, 0.000000000000000000, 1.000000000000000000 ) ) ;
#41 = EDGE_CURVE ( 'NONE', #299, #175, #267, .T. ) ;
#42 = DATE_AND_TIME ( #239, #20 ) ;
#43 = APPROVAL_PERSON_ORGANIZATION ( #211, #123, #73 ) ;
#44 = PRODUCT_DEFINITION ( 'NEZNÁMÝ', '', #293, #59 ) ;
#45 = DIRECTION ( 'NONE',  ( 1.000000000000000000, 0.000000000000000000, 0.000000000000000000 ) ) ;
#46 = COORDINATED_UNIVERSAL_TIME_OFFSET ( 1, 0, .AHEAD. ) ;
#47 =( LENGTH_UNIT ( ) NAMED_UNIT ( * ) SI_UNIT ( .MILLI., .METRE. ) );
#48 = EDGE_CURVE ( 'NONE', #165, #79, #259, .T. ) ;
#49 = DIRECTION ( 'NONE',  ( 1.000000000000000000, 0.000000000000000000, 0.000000000000000000 ) ) ;
#50 = CARTESIAN_POINT ( 'NONE',  ( -2.750000000000000000, 0.000000000000000000, 318.0000000000000000 ) ) ;
#51 = PERSON_AND_ORGANIZATION ( #214, #163 ) ;
#52 = DIRECTION ( 'NONE',  ( 0.000000000000000000, 0.000000000000000000, -1.000000000000000000 ) ) ;
#53 = ORIENTED_EDGE ( 'NONE', *, *, #221, .F. ) ;
#54 = CC_DESIGN_PERSON_AND_ORGANIZATION_ASSIGNMENT ( #186, #145, ( #293 ) ) ;
#55 = PERSON_AND_ORGANIZATION_ROLE ( 'design_owner' ) ;
#56 = APPLICATION_PROTOCOL_DEFINITION ( 'international standard', 'config_control_design', 1994, #217 ) ;
#57 = AXIS2_PLACEMENT_3D ( 'NONE', #80, #12, #179 ) ;
#58 = ADVANCED_FACE ( 'NONE', ( #94 ), #301, .T. ) ;
#59 = DESIGN_CONTEXT ( 'detailed design', #217, 'design' ) ;
#60 = EDGE_LOOP ( 'NONE', ( #156, #289 ) ) ;
#61 = ORIENTED_EDGE ( 'NONE', *, *, #108, .F. ) ;
#62 = CARTESIAN_POINT ( 'NONE',  ( 5.000000000000000000, 6.123233995736766282E-16, 0.000000000000000000 ) ) ;
#63 = CC_DESIGN_APPROVAL ( #21, ( #293 ) ) ;
#64 = PLANE ( 'NONE',  #243 ) ;
#65 = DIRECTION ( 'NONE',  ( -1.000000000000000000, 0.000000000000000000, 0.000000000000000000 ) ) ;
#66 = CALENDAR_DATE ( 2022, 7, 7 ) ;
#67 = CYLINDRICAL_SURFACE ( 'NONE', #182, 5.000000000000000000 ) ;
#68 = DIRECTION ( 'NONE',  ( 0.000000000000000000, 0.000000000000000000, 1.000000000000000000 ) ) ;
#69 = DIRECTION ( 'NONE',  ( 1.000000000000000000, 0.000000000000000000, 0.000000000000000000 ) ) ;
#70 = PRODUCT_RELATED_PRODUCT_CATEGORY ( 'detail', '', ( #153 ) ) ;
#71 = CARTESIAN_POINT ( 'NONE',  ( 0.000000000000000000, 0.000000000000000000, 3.000000000000000000 ) ) ;
#72 = APPROVAL_DATE_TIME ( #117, #123 ) ;
#73 = APPROVAL_ROLE ( '' ) ;
#74 = DIRECTION ( 'NONE',  ( 0.000000000000000000, 0.000000000000000000, 1.000000000000000000 ) ) ;
#75 = APPROVAL_PERSON_ORGANIZATION ( #151, #185, #88 ) ;
#76 = EDGE_CURVE ( 'NONE', #263, #104, #292, .T. ) ;
#77 = ORIENTED_EDGE ( 'NONE', *, *, #48, .T. ) ;
#78 = VECTOR ( 'NONE', #261, 1000.000000000000000 ) ;
#79 = VERTEX_POINT ( 'NONE', #15 ) ;
#80 = CARTESIAN_POINT ( 'NONE',  ( 0.000000000000000000, 0.000000000000000000, 318.0000000000000000 ) ) ;
#81 = VERTEX_POINT ( 'NONE', #159 ) ;
#82 = CIRCLE ( 'NONE', #300, 2.949999999999999734 ) ;
#83 = FACE_OUTER_BOUND ( 'NONE', #127, .T. ) ;
#84 = ADVANCED_FACE ( 'NONE', ( #201 ), #64, .F. ) ;
#85 = AXIS2_PLACEMENT_3D ( 'NONE', #119, #68, #216 ) ;
#86 = MANIFOLD_SOLID_BREP ( 'Zaoblit1', #28 ) ;
#87 = CARTESIAN_POINT ( 'NONE',  ( -2.949999999999999734, 3.612708057484692097E-16, 2.999999999999990674 ) ) ;
#88 = APPROVAL_ROLE ( '' ) ;
#89 = PLANE ( 'NONE',  #195 ) ;
#90 = DIRECTION ( 'NONE',  ( -0.000000000000000000, -0.000000000000000000, -1.000000000000000000 ) ) ;
#91 = DIRECTION ( 'NONE',  ( -0.000000000000000000, -0.000000000000000000, -1.000000000000000000 ) ) ;
#92 = COORDINATED_UNIVERSAL_TIME_OFFSET ( 1, 0, .AHEAD. ) ;
#93 = DIRECTION ( 'NONE',  ( 1.224646799147353207E-16, 1.000000000000000000, -0.000000000000000000 ) ) ;
#94 = FACE_OUTER_BOUND ( 'NONE', #192, .T. ) ;
#95 = CARTESIAN_POINT ( 'NONE',  ( 0.000000000000000000, 0.000000000000000000, 3.199999999999980638 ) ) ;
#96 =( NAMED_UNIT ( * ) PLANE_ANGLE_UNIT ( ) SI_UNIT ( $, .RADIAN. ) );
#97 = ADVANCED_FACE ( 'NONE', ( #130 ), #103, .T. ) ;
#98 = AXIS2_PLACEMENT_3D ( 'NONE', #177, #121, #233 ) ;
#99 = APPLICATION_CONTEXT ( 'configuration controlled 3d designs of mechanical parts and assemblies' ) ;
#100 = CC_DESIGN_DATE_AND_TIME_ASSIGNMENT ( #304, #193, ( #44 ) ) ;
#101 = ORIENTED_EDGE ( 'NONE', *, *, #24, .T. ) ;
#102 = ORIENTED_EDGE ( 'NONE', *, *, #196, .F. ) ;
#103 = CYLINDRICAL_SURFACE ( 'NONE', #57, 2.750000000000000000 ) ;
#104 = VERTEX_POINT ( 'NONE', #62 ) ;
#105 = CC_DESIGN_PERSON_AND_ORGANIZATION_ASSIGNMENT ( #2, #283, ( #293 ) ) ;
#106 = DIRECTION ( 'NONE',  ( 1.000000000000000000, 0.000000000000000000, 0.000000000000000000 ) ) ;
#107 = ORIENTED_EDGE ( 'NONE', *, *, #302, .F. ) ;
#108 = EDGE_CURVE ( 'NONE', #129, #263, #274, .T. ) ;
#109 = AXIS2_PLACEMENT_3D ( 'NONE', #141, #122, #69 ) ;
#110 = DIRECTION ( 'NONE',  ( 1.000000000000000000, 0.000000000000000000, -0.000000000000000000 ) ) ;
#111 = LOCAL_TIME ( 12, 15, 6.000000000000000000, #260 ) ;
#112 = APPROVAL_ROLE ( '' ) ;
#113 = CARTESIAN_POINT ( 'NONE',  ( 0.000000000000000000, 0.000000000000000000, 3.000000000000000000 ) ) ;
#114 = APPROVAL_DATE_TIME ( #290, #185 ) ;
#115 = DIRECTION ( 'NONE',  ( 0.000000000000000000, -1.000000000000000000, 0.000000000000000000 ) ) ;
#116 = DIRECTION ( 'NONE',  ( 0.000000000000000000, 0.000000000000000000, 1.000000000000000000 ) ) ;
#117 = DATE_AND_TIME ( #278, #262 ) ;
#118 = DIRECTION ( 'NONE',  ( 0.000000000000000000, 0.000000000000000000, 1.000000000000000000 ) ) ;
#119 = CARTESIAN_POINT ( 'NONE',  ( 0.000000000000000000, 0.000000000000000000, 3.000000000000000000 ) ) ;
#120 = APPROVAL_DATE_TIME ( #42, #21 ) ;
#121 = DIRECTION ( 'NONE',  ( 0.000000000000000000, 0.000000000000000000, 1.000000000000000000 ) ) ;
#122 = DIRECTION ( 'NONE',  ( 0.000000000000000000, 0.000000000000000000, 1.000000000000000000 ) ) ;
#123 = APPROVAL ( #306, 'NEURÈENÝ' ) ;
#124 = AXIS2_PLACEMENT_3D ( 'NONE', #30, #115, #52 ) ;
#125 = AXIS2_PLACEMENT_3D ( 'NONE', #1, #4, #213 ) ;
#126 = CC_DESIGN_PERSON_AND_ORGANIZATION_ASSIGNMENT ( #232, #150, ( #273 ) ) ;
#127 = EDGE_LOOP ( 'NONE', ( #16, #144, #158, #36 ) ) ;
#128 = VECTOR ( 'NONE', #91, 1000.000000000000000 ) ;
#129 = VERTEX_POINT ( 'NONE', #205 ) ;
#130 = FACE_OUTER_BOUND ( 'NONE', #295, .T. ) ;
#131 = ADVANCED_FACE ( 'NONE', ( #83 ), #226, .F. ) ;
#132 = CARTESIAN_POINT ( 'NONE',  ( 0.000000000000000000, 0.000000000000000000, 0.000000000000000000 ) ) ;
#133 = ADVANCED_FACE ( 'NONE', ( #258 ), #255, .T. ) ;
#134 = CIRCLE ( 'NONE', #253, 0.2000000000000000944 ) ;
#135 = CIRCLE ( 'NONE', #200, 2.750000000000000000 ) ;
#136 = CARTESIAN_POINT ( 'NONE',  ( 0.000000000000000000, 0.000000000000000000, 0.000000000000000000 ) ) ;
#137 = CALENDAR_DATE ( 2022, 7, 7 ) ;
#138 = ORIENTED_EDGE ( 'NONE', *, *, #183, .T. ) ;
#139 = CARTESIAN_POINT ( 'NONE',  ( 0.000000000000000000, 0.000000000000000000, 318.0000000000000000 ) ) ;
#140 = AXIS2_PLACEMENT_3D ( 'NONE', #241, #32, #173 ) ;
#141 = CARTESIAN_POINT ( 'NONE',  ( 0.000000000000000000, 0.000000000000000000, 318.0000000000000000 ) ) ;
#142 = EDGE_CURVE ( 'NONE', #79, #81, #135, .T. ) ;
#143 = CARTESIAN_POINT ( 'NONE',  ( -2.750000000000000000, 0.000000000000000000, 318.0000000000000000 ) ) ;
#144 = ORIENTED_EDGE ( 'NONE', *, *, #302, .T. ) ;
#145 = PERSON_AND_ORGANIZATION_ROLE ( 'design_supplier' ) ;
#146 = FACE_OUTER_BOUND ( 'NONE', #176, .T. ) ;
#147 = ADVANCED_BREP_SHAPE_REPRESENTATION ( '1373', ( #86, #140 ), #206 ) ;
#148 = ADVANCED_FACE ( 'NONE', ( #231, #18 ), #89, .T. ) ;
#149 = ORIENTED_EDGE ( 'NONE', *, *, #252, .T. ) ;
#150 = PERSON_AND_ORGANIZATION_ROLE ( 'classification_officer' ) ;
#151 = PERSON_AND_ORGANIZATION ( #214, #163 ) ;
#152 =( NAMED_UNIT ( * ) SI_UNIT ( $, .STERADIAN. ) SOLID_ANGLE_UNIT ( ) );
#153 = PRODUCT ( '1373', '1373', '', ( #266 ) ) ;
#154 = LINE ( 'NONE', #284, #296 ) ;
#155 = AXIS2_PLACEMENT_3D ( 'NONE', #132, #225, #106 ) ;
#156 = ORIENTED_EDGE ( 'NONE', *, *, #41, .T. ) ;
#157 = CIRCLE ( 'NONE', #220, 2.750000000000000000 ) ;
#158 = ORIENTED_EDGE ( 'NONE', *, *, #41, .F. ) ;
#159 = CARTESIAN_POINT ( 'NONE',  ( 2.750000000000000000, 3.367778697655221012E-16, 3.199999999999980638 ) ) ;
#160 = APPROVAL_PERSON_ORGANIZATION ( #51, #21, #112 ) ;
#161 = DIRECTION ( 'NONE',  ( -1.000000000000000000, 0.000000000000000000, 0.000000000000000000 ) ) ;
#162 = ADVANCED_FACE ( 'NONE', ( #280 ), #67, .T. ) ;
#163 = ORGANIZATION ( 'NEURÈENÝ', 'NEURÈENÝ', '' ) ;
#164 = DIRECTION ( 'NONE',  ( 0.000000000000000000, 0.000000000000000000, 1.000000000000000000 ) ) ;
#165 = VERTEX_POINT ( 'NONE', #143 ) ;
#166 = DIRECTION ( 'NONE',  ( -0.000000000000000000, -0.000000000000000000, -1.000000000000000000 ) ) ;
#167 = DIRECTION ( 'NONE',  ( -0.000000000000000000, -0.000000000000000000, -1.000000000000000000 ) ) ;
#168 = COORDINATED_UNIVERSAL_TIME_OFFSET ( 1, 0, .AHEAD. ) ;
#169 = EDGE_CURVE ( 'NONE', #104, #263, #35, .T. ) ;
#170 = DIRECTION ( 'NONE',  ( 1.000000000000000000, 0.000000000000000000, 0.000000000000000000 ) ) ;
#171 = CALENDAR_DATE ( 2022, 7, 7 ) ;
#172 = CYLINDRICAL_SURFACE ( 'NONE', #8, 5.000000000000000000 ) ;
#173 = DIRECTION ( 'NONE',  ( 1.000000000000000000, 0.000000000000000000, 0.000000000000000000 ) ) ;
#174 = CIRCLE ( 'NONE', #98, 2.750000000000000000 ) ;
#175 = VERTEX_POINT ( 'NONE', #87 ) ;
#176 = EDGE_LOOP ( 'NONE', ( #178, #202, #37, #189 ) ) ;
#177 = CARTESIAN_POINT ( 'NONE',  ( 0.000000000000000000, 0.000000000000000000, 3.199999999999980638 ) ) ;
#178 = ORIENTED_EDGE ( 'NONE', *, *, #230, .F. ) ;
#179 = DIRECTION ( 'NONE',  ( -1.000000000000000000, 0.000000000000000000, 0.000000000000000000 ) ) ;
#180 = ORIENTED_EDGE ( 'NONE', *, *, #142, .T. ) ;
#181 = CC_DESIGN_APPROVAL ( #185, ( #44 ) ) ;
#182 = AXIS2_PLACEMENT_3D ( 'NONE', #113, #166, #65 ) ;
#183 = EDGE_CURVE ( 'NONE', #81, #79, #174, .T. ) ;
#184 = DIRECTION ( 'NONE',  ( 0.000000000000000000, 0.000000000000000000, 1.000000000000000000 ) ) ;
#185 = APPROVAL ( #240, 'NEURÈENÝ' ) ;
#186 = PERSON_AND_ORGANIZATION ( #214, #163 ) ;
#187 = CARTESIAN_POINT ( 'NONE',  ( 0.000000000000000000, 0.000000000000000000, 3.000000000000000000 ) ) ;
#188 = CARTESIAN_POINT ( 'NONE',  ( 2.750000000000000000, 3.367778697655221012E-16, 318.0000000000000000 ) ) ;
#189 = ORIENTED_EDGE ( 'NONE', *, *, #76, .T. ) ;
#190 = SHAPE_DEFINITION_REPRESENTATION ( #33, #147 ) ;
#191 = CARTESIAN_POINT ( 'NONE',  ( -2.949999999999999734, 3.612708057484692097E-16, 3.199999999999980638 ) ) ;
#192 = EDGE_LOOP ( 'NONE', ( #198, #102, #77, #180 ) ) ;
#193 = DATE_TIME_ROLE ( 'creation_date' ) ;
#194 = AXIS2_PLACEMENT_3D ( 'NONE', #136, #227, #207 ) ;
#195 = AXIS2_PLACEMENT_3D ( 'NONE', #187, #277, #303 ) ;
#196 = EDGE_CURVE ( 'NONE', #165, #275, #244, .T. ) ;
#197 = LOCAL_TIME ( 12, 15, 6.000000000000000000, #92 ) ;
#198 = ORIENTED_EDGE ( 'NONE', *, *, #269, .F. ) ;
#199 = ORIENTED_EDGE ( 'NONE', *, *, #7, .F. ) ;
#200 = AXIS2_PLACEMENT_3D ( 'NONE', #22, #305, #49 ) ;
#201 = FACE_OUTER_BOUND ( 'NONE', #222, .T. ) ;
#202 = ORIENTED_EDGE ( 'NONE', *, *, #24, .F. ) ;
#203 = ORIENTED_EDGE ( 'NONE', *, *, #169, .T. ) ;
#204 = AXIS2_PLACEMENT_3D ( 'NONE', #272, #298, #161 ) ;
#205 = CARTESIAN_POINT ( 'NONE',  ( -5.000000000000000000, 0.000000000000000000, 3.000000000000000000 ) ) ;
#206 =( GEOMETRIC_REPRESENTATION_CONTEXT ( 3 ) GLOBAL_UNCERTAINTY_ASSIGNED_CONTEXT ( ( #34 ) ) GLOBAL_UNIT_ASSIGNED_CONTEXT ( ( #47, #96, #152 ) ) REPRESENTATION_CONTEXT ( 'NONE', 'WORKASPACE' ) );
#207 = DIRECTION ( 'NONE',  ( 1.000000000000000000, 0.000000000000000000, 0.000000000000000000 ) ) ;
#208 = PERSON_AND_ORGANIZATION ( #214, #163 ) ;
#209 = CARTESIAN_POINT ( 'NONE',  ( 0.000000000000000000, 0.000000000000000000, 3.199999999999980638 ) ) ;
#210 = ADVANCED_FACE ( 'NONE', ( #287 ), #6, .F. ) ;
#211 = PERSON_AND_ORGANIZATION ( #214, #163 ) ;
#212 = CARTESIAN_POINT ( 'NONE',  ( -5.000000000000000000, 0.000000000000000000, 0.000000000000000000 ) ) ;
#213 = DIRECTION ( 'NONE',  ( 1.000000000000000000, 0.000000000000000000, 0.000000000000000000 ) ) ;
#214 = PERSON ( 'NEURÈENÝ', 'NEURÈENÝ', 'NEURÈENÝ', ('NEURÈENÝ'), ('NEURÈENÝ'), ('NEURÈENÝ') ) ;
#215 = CARTESIAN_POINT ( 'NONE',  ( 2.949999999999999734, 0.000000000000000000, 2.999999999999990674 ) ) ;
#216 = DIRECTION ( 'NONE',  ( 1.000000000000000000, 0.000000000000000000, 0.000000000000000000 ) ) ;
#217 = APPLICATION_CONTEXT ( 'configuration controlled 3d designs of mechanical parts and assemblies' ) ;
#218 = CC_DESIGN_PERSON_AND_ORGANIZATION_ASSIGNMENT ( #265, #286, ( #44 ) ) ;
#219 = DIRECTION ( 'NONE',  ( -1.000000000000000000, 1.224646799147353207E-16, 0.000000000000000000 ) ) ;
#220 = AXIS2_PLACEMENT_3D ( 'NONE', #307, #118, #5 ) ;
#221 = EDGE_CURVE ( 'NONE', #275, #165, #157, .T. ) ;
#222 = EDGE_LOOP ( 'NONE', ( #247, #245 ) ) ;
#223 = EDGE_LOOP ( 'NONE', ( #297, #271 ) ) ;
#224 = DIRECTION ( 'NONE',  ( 1.000000000000000000, 0.000000000000000000, -0.000000000000000000 ) ) ;
#225 = DIRECTION ( 'NONE',  ( 0.000000000000000000, 0.000000000000000000, 1.000000000000000000 ) ) ;
#226 = TOROIDAL_SURFACE ( 'NONE', #279, 2.949999999999999734, 0.2000000000000000111 ) ;
#227 = DIRECTION ( 'NONE',  ( 0.000000000000000000, 0.000000000000000000, 1.000000000000000000 ) ) ;
#228 = COORDINATED_UNIVERSAL_TIME_OFFSET ( 1, 0, .AHEAD. ) ;
#229 = EDGE_LOOP ( 'NONE', ( #107, #10, #149, #199 ) ) ;
#230 = EDGE_CURVE ( 'NONE', #13, #104, #3, .T. ) ;
#231 = FACE_BOUND ( 'NONE', #60, .T. ) ;
#232 = PERSON_AND_ORGANIZATION ( #214, #163 ) ;
#233 = DIRECTION ( 'NONE',  ( 1.000000000000000000, 0.000000000000000000, 0.000000000000000000 ) ) ;
#234 = CC_DESIGN_SECURITY_CLASSIFICATION ( #273, ( #293 ) ) ;
#235 = CARTESIAN_POINT ( 'NONE',  ( 0.000000000000000000, 0.000000000000000000, 3.000000000000000000 ) ) ;
#236 = SECURITY_CLASSIFICATION_LEVEL ( 'unclassified' ) ;
#237 = CARTESIAN_POINT ( 'NONE',  ( 0.000000000000000000, 0.000000000000000000, 3.000000000000000000 ) ) ;
#238 = ORIENTED_EDGE ( 'NONE', *, *, #14, .F. ) ;
#239 = CALENDAR_DATE ( 2022, 7, 7 ) ;
#240 = APPROVAL_STATUS ( 'not_yet_approved' ) ;
#241 = CARTESIAN_POINT ( 'NONE',  ( 0.000000000000000000, 0.000000000000000000, 0.000000000000000000 ) ) ;
#242 = CARTESIAN_POINT ( 'NONE',  ( 5.000000000000000000, 6.123233995736766282E-16, 3.000000000000000000 ) ) ;
#243 = AXIS2_PLACEMENT_3D ( 'NONE', #250, #40, #224 ) ;
#244 = CIRCLE ( 'NONE', #109, 2.750000000000000000 ) ;
#245 = ORIENTED_EDGE ( 'NONE', *, *, #169, .F. ) ;
#246 = CIRCLE ( 'NONE', #256, 5.000000000000000000 ) ;
#247 = ORIENTED_EDGE ( 'NONE', *, *, #76, .F. ) ;
#248 = CARTESIAN_POINT ( 'NONE',  ( -5.000000000000000000, 0.000000000000000000, 3.000000000000000000 ) ) ;
#249 = ORIENTED_EDGE ( 'NONE', *, *, #48, .F. ) ;
#250 = CARTESIAN_POINT ( 'NONE',  ( 0.000000000000000000, 0.000000000000000000, 0.000000000000000000 ) ) ;
#251 = CC_DESIGN_APPROVAL ( #123, ( #273 ) ) ;
#252 = EDGE_CURVE ( 'NONE', #81, #299, #254, .T. ) ;
#253 = AXIS2_PLACEMENT_3D ( 'NONE', #191, #93, #219 ) ;
#254 = CIRCLE ( 'NONE', #124, 0.2000000000000000944 ) ;
#255 = PLANE ( 'NONE',  #294 ) ;
#256 = AXIS2_PLACEMENT_3D ( 'NONE', #71, #116, #170 ) ;
#257 = DIRECTION ( 'NONE',  ( -1.000000000000000000, 0.000000000000000000, 0.000000000000000000 ) ) ;
#258 = FACE_OUTER_BOUND ( 'NONE', #223, .T. ) ;
#259 = LINE ( 'NONE', #50, #128 ) ;
#260 = COORDINATED_UNIVERSAL_TIME_OFFSET ( 1, 0, .AHEAD. ) ;
#261 = DIRECTION ( 'NONE',  ( -0.000000000000000000, -0.000000000000000000, -1.000000000000000000 ) ) ;
#262 = LOCAL_TIME ( 12, 15, 6.000000000000000000, #168 ) ;
#263 = VERTEX_POINT ( 'NONE', #212 ) ;
#264 = DATE_AND_TIME ( #171, #19 ) ;
#265 = PERSON_AND_ORGANIZATION ( #214, #163 ) ;
#266 = MECHANICAL_CONTEXT ( 'NONE', #99, 'mechanical' ) ;
#267 = CIRCLE ( 'NONE', #125, 2.949999999999999734 ) ;
#268 = APPLICATION_PROTOCOL_DEFINITION ( 'international standard', 'config_control_design', 1994, #99 ) ;
#269 = EDGE_CURVE ( 'NONE', #275, #81, #154, .T. ) ;
#270 = ORIENTED_EDGE ( 'NONE', *, *, #269, .T. ) ;
#271 = ORIENTED_EDGE ( 'NONE', *, *, #221, .T. ) ;
#272 = CARTESIAN_POINT ( 'NONE',  ( 0.000000000000000000, 0.000000000000000000, 318.0000000000000000 ) ) ;
#273 = SECURITY_CLASSIFICATION ( '', '', #236 ) ;
#274 = LINE ( 'NONE', #248, #281 ) ;
#275 = VERTEX_POINT ( 'NONE', #188 ) ;
#276 = CIRCLE ( 'NONE', #85, 5.000000000000000000 ) ;
#277 = DIRECTION ( 'NONE',  ( 0.000000000000000000, 0.000000000000000000, 1.000000000000000000 ) ) ;
#278 = CALENDAR_DATE ( 2022, 7, 7 ) ;
#279 = AXIS2_PLACEMENT_3D ( 'NONE', #209, #184, #45 ) ;
#280 = FACE_OUTER_BOUND ( 'NONE', #285, .T. ) ;
#281 = VECTOR ( 'NONE', #38, 1000.000000000000000 ) ;
#282 = CARTESIAN_POINT ( 'NONE',  ( 5.000000000000000000, 6.123233995736766282E-16, 3.000000000000000000 ) ) ;
#283 = PERSON_AND_ORGANIZATION_ROLE ( 'creator' ) ;
#284 = CARTESIAN_POINT ( 'NONE',  ( 2.750000000000000000, 3.367778697655221012E-16, 318.0000000000000000 ) ) ;
#285 = EDGE_LOOP ( 'NONE', ( #238, #39, #203, #61 ) ) ;
#286 = PERSON_AND_ORGANIZATION_ROLE ( 'creator' ) ;
#287 = FACE_OUTER_BOUND ( 'NONE', #229, .T. ) ;
#288 = ADVANCED_FACE ( 'NONE', ( #146 ), #172, .T. ) ;
#289 = ORIENTED_EDGE ( 'NONE', *, *, #7, .T. ) ;
#290 = DATE_AND_TIME ( #66, #111 ) ;
#291 = AXIS2_PLACEMENT_3D ( 'NONE', #95, #74, #23 ) ;
#292 = CIRCLE ( 'NONE', #155, 5.000000000000000000 ) ;
#293 = PRODUCT_DEFINITION_FORMATION_WITH_SPECIFIED_SOURCE ( 'LIBOVOLNÝ', '', #153, .NOT_KNOWN. ) ;
#294 = AXIS2_PLACEMENT_3D ( 'NONE', #139, #164, #110 ) ;
#295 = EDGE_LOOP ( 'NONE', ( #53, #270, #138, #249 ) ) ;
#296 = VECTOR ( 'NONE', #90, 1000.000000000000000 ) ;
#297 = ORIENTED_EDGE ( 'NONE', *, *, #196, .T. ) ;
#298 = DIRECTION ( 'NONE',  ( -0.000000000000000000, -0.000000000000000000, -1.000000000000000000 ) ) ;
#299 = VERTEX_POINT ( 'NONE', #215 ) ;
#300 = AXIS2_PLACEMENT_3D ( 'NONE', #235, #167, #29 ) ;
#301 = CYLINDRICAL_SURFACE ( 'NONE', #204, 2.750000000000000000 ) ;
#302 = EDGE_CURVE ( 'NONE', #79, #175, #134, .T. ) ;
#303 = DIRECTION ( 'NONE',  ( 1.000000000000000000, 0.000000000000000000, -0.000000000000000000 ) ) ;
#304 = DATE_AND_TIME ( #137, #197 ) ;
#305 = DIRECTION ( 'NONE',  ( 0.000000000000000000, 0.000000000000000000, 1.000000000000000000 ) ) ;
#306 = APPROVAL_STATUS ( 'not_yet_approved' ) ;
#307 = CARTESIAN_POINT ( 'NONE',  ( 0.000000000000000000, 0.000000000000000000, 318.0000000000000000 ) ) ;
ENDSEC;
END-ISO-10303-21;
