ISO-10303-21;
HEADER;
FILE_DESCRIPTION (( 'STEP AP203' ),
    '1' );
FILE_NAME ('1e6b.STEP',
    '2022-07-07T10:38:09',
    ( '' ),
    ( '' ),
    'SwSTEP 2.0',
    'SolidWorks 2019',
    '' );
FILE_SCHEMA (( 'CONFIG_CONTROL_DESIGN' ));
ENDSEC;

DATA;
#1 = APPROVAL_DATE_TIME ( #182, #158 ) ;
#2 = EDGE_CURVE ( 'NONE', #190, #195, #151, .T. ) ;
#3 = ORIENTED_EDGE ( 'NONE', *, *, #84, .F. ) ;
#4 = CIRCLE ( 'NONE', #69, 0.8000000000000000444 ) ;
#5 = ADVANCED_FACE ( 'NONE', ( #9 ), #52, .F. ) ;
#6 = EDGE_LOOP ( 'NONE', ( #28, #17, #240, #213 ) ) ;
#7 = COORDINATED_UNIVERSAL_TIME_OFFSET ( 1, 0, .AHEAD. ) ;
#8 = LINE ( 'NONE', #102, #59 ) ;
#9 = FACE_OUTER_BOUND ( 'NONE', #11, .T. ) ;
#10 = ORIENTED_EDGE ( 'NONE', *, *, #302, .T. ) ;
#11 = EDGE_LOOP ( 'NONE', ( #191, #244 ) ) ;
#12 = DIRECTION ( 'NONE',  ( 1.000000000000000000, 0.000000000000000000, 0.000000000000000000 ) ) ;
#13 = DIRECTION ( 'NONE',  ( -1.000000000000000000, 0.000000000000000000, 0.000000000000000000 ) ) ;
#14 = CARTESIAN_POINT ( 'NONE',  ( 0.000000000000000000, 0.000000000000000000, 161.5000000000000000 ) ) ;
#15 = EDGE_CURVE ( 'NONE', #160, #27, #235, .T. ) ;
#16 = DIRECTION ( 'NONE',  ( 0.000000000000000000, -1.000000000000000000, 0.000000000000000000 ) ) ;
#17 = ORIENTED_EDGE ( 'NONE', *, *, #241, .F. ) ;
#18 = EDGE_CURVE ( 'NONE', #195, #187, #8, .T. ) ;
#19 = CIRCLE ( 'NONE', #77, 0.2000000000000000944 ) ;
#20 = CARTESIAN_POINT ( 'NONE',  ( 1.000000000000000000, 0.000000000000000000, 1.700000000000007061 ) ) ;
#21 = CALENDAR_DATE ( 2022, 7, 7 ) ;
#22 = APPROVAL_STATUS ( 'not_yet_approved' ) ;
#23 =( LENGTH_UNIT ( ) NAMED_UNIT ( * ) SI_UNIT ( .MILLI., .METRE. ) );
#24 = APPLICATION_PROTOCOL_DEFINITION ( 'international standard', 'config_control_design', 1994, #53 ) ;
#25 = PRODUCT_DEFINITION ( 'NEZNÁMÝ', '', #121, #30 ) ;
#26 = DATE_AND_TIME ( #142, #162 ) ;
#27 = VERTEX_POINT ( 'NONE', #196 ) ;
#28 = ORIENTED_EDGE ( 'NONE', *, *, #71, .F. ) ;
#29 = AXIS2_PLACEMENT_3D ( 'NONE', #280, #199, #39 ) ;
#30 = DESIGN_CONTEXT ( 'detailed design', #130, 'design' ) ;
#31 = PERSON_AND_ORGANIZATION ( #176, #60 ) ;
#32 = LINE ( 'NONE', #125, #109 ) ;
#33 = ORIENTED_EDGE ( 'NONE', *, *, #2, .F. ) ;
#34 = AXIS2_PLACEMENT_3D ( 'NONE', #62, #64, #173 ) ;
#35 = EDGE_LOOP ( 'NONE', ( #101, #89 ) ) ;
#36 = DIRECTION ( 'NONE',  ( 1.000000000000000000, 0.000000000000000000, 0.000000000000000000 ) ) ;
#37 = DIRECTION ( 'NONE',  ( 1.000000000000000000, 0.000000000000000000, -0.000000000000000000 ) ) ;
#38 = APPROVAL_PERSON_ORGANIZATION ( #31, #249, #123 ) ;
#39 = DIRECTION ( 'NONE',  ( 1.000000000000000000, 0.000000000000000000, 0.000000000000000000 ) ) ;
#40 = PLANE ( 'NONE',  #110 ) ;
#41 = DIRECTION ( 'NONE',  ( -1.000000000000000000, 1.224646799147351975E-16, 0.000000000000000000 ) ) ;
#42 = ORIENTED_EDGE ( 'NONE', *, *, #18, .T. ) ;
#43 = COORDINATED_UNIVERSAL_TIME_OFFSET ( 1, 0, .AHEAD. ) ;
#44 = PERSON_AND_ORGANIZATION ( #176, #60 ) ;
#45 = ADVANCED_FACE ( 'NONE', ( #127 ), #270, .T. ) ;
#46 = DIRECTION ( 'NONE',  ( 1.000000000000000000, 0.000000000000000000, 0.000000000000000000 ) ) ;
#47 = COORDINATED_UNIVERSAL_TIME_OFFSET ( 1, 0, .AHEAD. ) ;
#48 = CALENDAR_DATE ( 2022, 7, 7 ) ;
#49 = DIRECTION ( 'NONE',  ( -1.000000000000000000, 0.000000000000000000, 0.000000000000000000 ) ) ;
#50 = EDGE_CURVE ( 'NONE', #187, #291, #228, .T. ) ;
#51 = SHAPE_DEFINITION_REPRESENTATION ( #225, #307 ) ;
#52 = PLANE ( 'NONE',  #68 ) ;
#53 = APPLICATION_CONTEXT ( 'configuration controlled 3d designs of mechanical parts and assemblies' ) ;
#54 = CC_DESIGN_SECURITY_CLASSIFICATION ( #100, ( #121 ) ) ;
#55 = CC_DESIGN_DATE_AND_TIME_ASSIGNMENT ( #294, #243, ( #100 ) ) ;
#56 = EDGE_LOOP ( 'NONE', ( #205, #287, #106, #136 ) ) ;
#57 = CARTESIAN_POINT ( 'NONE',  ( -1.500000000000000222, 0.000000000000000000, 1.500000000000000000 ) ) ;
#58 = DIRECTION ( 'NONE',  ( 1.000000000000000000, 0.000000000000000000, -0.000000000000000000 ) ) ;
#59 = VECTOR ( 'NONE', #107, 1000.000000000000000 ) ;
#60 = ORGANIZATION ( 'NEURÈENÝ', 'NEURÈENÝ', '' ) ;
#61 = CYLINDRICAL_SURFACE ( 'NONE', #34, 1.500000000000000222 ) ;
#62 = CARTESIAN_POINT ( 'NONE',  ( 0.000000000000000000, 0.000000000000000000, 1.500000000000000000 ) ) ;
#63 = CARTESIAN_POINT ( 'NONE',  ( -0.8000000000000000444, 0.000000000000000000, 161.5000000000000000 ) ) ;
#64 = DIRECTION ( 'NONE',  ( -0.000000000000000000, -0.000000000000000000, -1.000000000000000000 ) ) ;
#65 = DIRECTION ( 'NONE',  ( 1.000000000000000000, 0.000000000000000000, 0.000000000000000000 ) ) ;
#66 = ORIENTED_EDGE ( 'NONE', *, *, #260, .F. ) ;
#67 = DIRECTION ( 'NONE',  ( 1.000000000000000000, 0.000000000000000000, 0.000000000000000000 ) ) ;
#68 = AXIS2_PLACEMENT_3D ( 'NONE', #269, #146, #58 ) ;
#69 = AXIS2_PLACEMENT_3D ( 'NONE', #226, #108, #65 ) ;
#70 = PERSON_AND_ORGANIZATION ( #176, #60 ) ;
#71 = EDGE_CURVE ( 'NONE', #214, #27, #32, .T. ) ;
#72 = DIRECTION ( 'NONE',  ( 1.000000000000000000, 0.000000000000000000, -0.000000000000000000 ) ) ;
#73 = ORIENTED_EDGE ( 'NONE', *, *, #260, .T. ) ;
#74 = AXIS2_PLACEMENT_3D ( 'NONE', #275, #274, #254 ) ;
#75 = APPROVAL_STATUS ( 'not_yet_approved' ) ;
#76 = EDGE_CURVE ( 'NONE', #78, #266, #99, .T. ) ;
#77 = AXIS2_PLACEMENT_3D ( 'NONE', #20, #16, #180 ) ;
#78 = VERTEX_POINT ( 'NONE', #82 ) ;
#79 = ORIENTED_EDGE ( 'NONE', *, *, #84, .T. ) ;
#80 = DIRECTION ( 'NONE',  ( -0.000000000000000000, -0.000000000000000000, -1.000000000000000000 ) ) ;
#81 = CIRCLE ( 'NONE', #290, 1.000000000000000000 ) ;
#82 = CARTESIAN_POINT ( 'NONE',  ( 1.000000000000000000, 0.000000000000000000, 1.500000000000003553 ) ) ;
#83 = ORIENTED_EDGE ( 'NONE', *, *, #71, .T. ) ;
#84 = EDGE_CURVE ( 'NONE', #190, #291, #171, .T. ) ;
#85 = DIRECTION ( 'NONE',  ( -0.000000000000000000, -0.000000000000000000, -1.000000000000000000 ) ) ;
#86 = APPROVAL_PERSON_ORGANIZATION ( #208, #279, #161 ) ;
#87 = DIRECTION ( 'NONE',  ( 1.000000000000000000, 0.000000000000000000, 0.000000000000000000 ) ) ;
#88 = FACE_BOUND ( 'NONE', #238, .T. ) ;
#89 = ORIENTED_EDGE ( 'NONE', *, *, #184, .T. ) ;
#90 = CIRCLE ( 'NONE', #126, 1.500000000000000222 ) ;
#91 = CIRCLE ( 'NONE', #222, 0.8000000000000000444 ) ;
#92 = FACE_OUTER_BOUND ( 'NONE', #212, .T. ) ;
#93 = ORIENTED_EDGE ( 'NONE', *, *, #18, .F. ) ;
#94 = PERSON_AND_ORGANIZATION_ROLE ( 'creator' ) ;
#95 = EDGE_CURVE ( 'NONE', #291, #187, #90, .T. ) ;
#96 = MECHANICAL_CONTEXT ( 'NONE', #53, 'mechanical' ) ;
#97 = ADVANCED_FACE ( 'NONE', ( #273 ), #203, .F. ) ;
#98 = PRODUCT ( '1e6b', '1e6b', '', ( #96 ) ) ;
#99 = CIRCLE ( 'NONE', #256, 1.000000000000000000 ) ;
#100 = SECURITY_CLASSIFICATION ( '', '', #265 ) ;
#101 = ORIENTED_EDGE ( 'NONE', *, *, #241, .T. ) ;
#102 = CARTESIAN_POINT ( 'NONE',  ( 1.500000000000000222, 1.836970198721030181E-16, 1.500000000000000000 ) ) ;
#103 = CARTESIAN_POINT ( 'NONE',  ( 0.000000000000000000, 0.000000000000000000, 1.500000000000000000 ) ) ;
#104 = CC_DESIGN_APPROVAL ( #249, ( #100 ) ) ;
#105 = APPROVAL_STATUS ( 'not_yet_approved' ) ;
#106 = ORIENTED_EDGE ( 'NONE', *, *, #76, .F. ) ;
#107 = DIRECTION ( 'NONE',  ( -0.000000000000000000, -0.000000000000000000, -1.000000000000000000 ) ) ;
#108 = DIRECTION ( 'NONE',  ( 0.000000000000000000, 0.000000000000000000, 1.000000000000000000 ) ) ;
#109 = VECTOR ( 'NONE', #215, 1000.000000000000000 ) ;
#110 = AXIS2_PLACEMENT_3D ( 'NONE', #178, #248, #37 ) ;
#111 = CC_DESIGN_PERSON_AND_ORGANIZATION_ASSIGNMENT ( #183, #259, ( #121 ) ) ;
#112 = CARTESIAN_POINT ( 'NONE',  ( -1.000000000000000000, 1.224646799147353207E-16, 1.500000000000003553 ) ) ;
#113 = DIRECTION ( 'NONE',  ( 0.000000000000000000, 0.000000000000000000, 1.000000000000000000 ) ) ;
#114 = AXIS2_PLACEMENT_3D ( 'NONE', #115, #113, #36 ) ;
#115 = CARTESIAN_POINT ( 'NONE',  ( 0.000000000000000000, 0.000000000000000000, 1.500000000000000000 ) ) ;
#116 = CC_DESIGN_APPROVAL ( #158, ( #121 ) ) ;
#117 = ORIENTED_EDGE ( 'NONE', *, *, #282, .F. ) ;
#118 = ADVANCED_FACE ( 'NONE', ( #177 ), #289, .F. ) ;
#119 =( NAMED_UNIT ( * ) PLANE_ANGLE_UNIT ( ) SI_UNIT ( $, .RADIAN. ) );
#120 = CALENDAR_DATE ( 2022, 7, 7 ) ;
#121 = PRODUCT_DEFINITION_FORMATION_WITH_SPECIFIED_SOURCE ( 'LIBOVOLNÝ', '', #98, .NOT_KNOWN. ) ;
#122 = VERTEX_POINT ( 'NONE', #298 ) ;
#123 = APPROVAL_ROLE ( '' ) ;
#124 = DIRECTION ( 'NONE',  ( 0.000000000000000000, 0.000000000000000000, 1.000000000000000000 ) ) ;
#125 = CARTESIAN_POINT ( 'NONE',  ( 0.8000000000000000444, 9.797174393178826150E-17, 161.5000000000000000 ) ) ;
#126 = AXIS2_PLACEMENT_3D ( 'NONE', #155, #197, #220 ) ;
#127 = FACE_OUTER_BOUND ( 'NONE', #6, .T. ) ;
#128 = AXIS2_PLACEMENT_3D ( 'NONE', #131, #148, #218 ) ;
#129 = AXIS2_PLACEMENT_3D ( 'NONE', #166, #262, #67 ) ;
#130 = APPLICATION_CONTEXT ( 'configuration controlled 3d designs of mechanical parts and assemblies' ) ;
#131 = CARTESIAN_POINT ( 'NONE',  ( 0.000000000000000000, 0.000000000000000000, 1.500000000000000000 ) ) ;
#132 = EDGE_CURVE ( 'NONE', #122, #160, #175, .T. ) ;
#133 = DIRECTION ( 'NONE',  ( -0.000000000000000000, -0.000000000000000000, -1.000000000000000000 ) ) ;
#134 = CARTESIAN_POINT ( 'NONE',  ( -0.8000000000000000444, 0.000000000000000000, 1.700000000000007061 ) ) ;
#135 = CARTESIAN_POINT ( 'NONE',  ( 1.500000000000000222, 1.836970198721030181E-16, 0.000000000000000000 ) ) ;
#136 = ORIENTED_EDGE ( 'NONE', *, *, #247, .F. ) ;
#137 = DIRECTION ( 'NONE',  ( -0.000000000000000000, -0.000000000000000000, -1.000000000000000000 ) ) ;
#138 = VECTOR ( 'NONE', #250, 1000.000000000000000 ) ;
#139 = PERSON_AND_ORGANIZATION ( #176, #60 ) ;
#140 = CC_DESIGN_PERSON_AND_ORGANIZATION_ASSIGNMENT ( #261, #306, ( #25 ) ) ;
#141 = PRODUCT_RELATED_PRODUCT_CATEGORY ( 'detail', '', ( #98 ) ) ;
#142 = CALENDAR_DATE ( 2022, 7, 7 ) ;
#143 = AXIS2_PLACEMENT_3D ( 'NONE', #293, #80, #49 ) ;
#144 = DIRECTION ( 'NONE',  ( 0.000000000000000000, 0.000000000000000000, 1.000000000000000000 ) ) ;
#145 = ORIENTED_EDGE ( 'NONE', *, *, #2, .T. ) ;
#146 = DIRECTION ( 'NONE',  ( 0.000000000000000000, 0.000000000000000000, 1.000000000000000000 ) ) ;
#147 = APPROVAL_DATE_TIME ( #194, #249 ) ;
#148 = DIRECTION ( 'NONE',  ( 0.000000000000000000, 0.000000000000000000, 1.000000000000000000 ) ) ;
#149 = ADVANCED_FACE ( 'NONE', ( #227 ), #61, .T. ) ;
#150 = DIRECTION ( 'NONE',  ( -0.000000000000000000, -0.000000000000000000, -1.000000000000000000 ) ) ;
#151 = CIRCLE ( 'NONE', #128, 1.500000000000000222 ) ;
#152 = DIRECTION ( 'NONE',  ( 0.000000000000000000, 0.000000000000000000, 1.000000000000000000 ) ) ;
#153 = CARTESIAN_POINT ( 'NONE',  ( 1.500000000000000222, 1.836970198721030181E-16, 1.500000000000000000 ) ) ;
#154 = FACE_OUTER_BOUND ( 'NONE', #35, .T. ) ;
#155 = CARTESIAN_POINT ( 'NONE',  ( 0.000000000000000000, 0.000000000000000000, 0.000000000000000000 ) ) ;
#156 = CC_DESIGN_PERSON_AND_ORGANIZATION_ASSIGNMENT ( #70, #288, ( #98 ) ) ;
#157 = CARTESIAN_POINT ( 'NONE',  ( 0.8000000000000000444, 9.797174393178826150E-17, 161.5000000000000000 ) ) ;
#158 = APPROVAL ( #75, 'NEURÈENÝ' ) ;
#159 = CYLINDRICAL_SURFACE ( 'NONE', #204, 0.8000000000000000444 ) ;
#160 = VERTEX_POINT ( 'NONE', #134 ) ;
#161 = APPROVAL_ROLE ( '' ) ;
#162 = LOCAL_TIME ( 12, 38, 9.000000000000000000, #43 ) ;
#163 = DATE_AND_TIME ( #255, #264 ) ;
#164 = CC_DESIGN_PERSON_AND_ORGANIZATION_ASSIGNMENT ( #139, #94, ( #121 ) ) ;
#165 = CARTESIAN_POINT ( 'NONE',  ( 0.000000000000000000, 0.000000000000000000, 1.700000000000007061 ) ) ;
#166 = CARTESIAN_POINT ( 'NONE',  ( 0.000000000000000000, 0.000000000000000000, 0.000000000000000000 ) ) ;
#167 = UNCERTAINTY_MEASURE_WITH_UNIT (LENGTH_MEASURE( 1.000000000000000082E-05 ), #23, 'distance_accuracy_value', 'NONE');
#168 = DIRECTION ( 'NONE',  ( 1.000000000000000000, 0.000000000000000000, 0.000000000000000000 ) ) ;
#169 = ORIENTED_EDGE ( 'NONE', *, *, #302, .F. ) ;
#170 = CARTESIAN_POINT ( 'NONE',  ( 0.000000000000000000, 0.000000000000000000, 0.000000000000000000 ) ) ;
#171 = LINE ( 'NONE', #57, #216 ) ;
#172 = CARTESIAN_POINT ( 'NONE',  ( 0.000000000000000000, 0.000000000000000000, 1.700000000000007061 ) ) ;
#173 = DIRECTION ( 'NONE',  ( -1.000000000000000000, 0.000000000000000000, 0.000000000000000000 ) ) ;
#174 = AXIS2_PLACEMENT_3D ( 'NONE', #223, #137, #202 ) ;
#175 = LINE ( 'NONE', #63, #138 ) ;
#176 = PERSON ( 'NEURÈENÝ', 'NEURÈENÝ', 'NEURÈENÝ', ('NEURÈENÝ'), ('NEURÈENÝ'), ('NEURÈENÝ') ) ;
#177 = FACE_OUTER_BOUND ( 'NONE', #292, .T. ) ;
#178 = CARTESIAN_POINT ( 'NONE',  ( 0.000000000000000000, 0.000000000000000000, 161.5000000000000000 ) ) ;
#179 = AXIS2_PLACEMENT_3D ( 'NONE', #170, #152, #242 ) ;
#180 = DIRECTION ( 'NONE',  ( 0.000000000000000000, 0.000000000000000000, -1.000000000000000000 ) ) ;
#181 = ORIENTED_EDGE ( 'NONE', *, *, #76, .T. ) ;
#182 = DATE_AND_TIME ( #120, #209 ) ;
#183 = PERSON_AND_ORGANIZATION ( #176, #60 ) ;
#184 = EDGE_CURVE ( 'NONE', #214, #122, #198, .T. ) ;
#185 = DIRECTION ( 'NONE',  ( 0.000000000000000000, 0.000000000000000000, 1.000000000000000000 ) ) ;
#186 = PERSON_AND_ORGANIZATION ( #176, #60 ) ;
#187 = VERTEX_POINT ( 'NONE', #135 ) ;
#188 = CC_DESIGN_PERSON_AND_ORGANIZATION_ASSIGNMENT ( #44, #231, ( #100 ) ) ;
#189 =( GEOMETRIC_REPRESENTATION_CONTEXT ( 3 ) GLOBAL_UNCERTAINTY_ASSIGNED_CONTEXT ( ( #167 ) ) GLOBAL_UNIT_ASSIGNED_CONTEXT ( ( #23, #119, #286 ) ) REPRESENTATION_CONTEXT ( 'NONE', 'WORKASPACE' ) );
#190 = VERTEX_POINT ( 'NONE', #206 ) ;
#191 = ORIENTED_EDGE ( 'NONE', *, *, #95, .F. ) ;
#192 = LOCAL_TIME ( 12, 38, 9.000000000000000000, #47 ) ;
#193 = DIRECTION ( 'NONE',  ( -0.000000000000000000, -0.000000000000000000, -1.000000000000000000 ) ) ;
#194 = DATE_AND_TIME ( #48, #272 ) ;
#195 = VERTEX_POINT ( 'NONE', #153 ) ;
#196 = CARTESIAN_POINT ( 'NONE',  ( 0.8000000000000000444, 9.797174393178826150E-17, 1.700000000000007061 ) ) ;
#197 = DIRECTION ( 'NONE',  ( 0.000000000000000000, 0.000000000000000000, 1.000000000000000000 ) ) ;
#198 = CIRCLE ( 'NONE', #29, 0.8000000000000000444 ) ;
#199 = DIRECTION ( 'NONE',  ( 0.000000000000000000, 0.000000000000000000, 1.000000000000000000 ) ) ;
#200 = CC_DESIGN_DATE_AND_TIME_ASSIGNMENT ( #26, #234, ( #25 ) ) ;
#201 = CARTESIAN_POINT ( 'NONE',  ( 0.000000000000000000, 0.000000000000000000, 1.500000000000000000 ) ) ;
#202 = DIRECTION ( 'NONE',  ( -1.000000000000000000, 0.000000000000000000, 0.000000000000000000 ) ) ;
#203 = TOROIDAL_SURFACE ( 'NONE', #74, 1.000000000000000000, 0.2000000000000000111 ) ;
#204 = AXIS2_PLACEMENT_3D ( 'NONE', #14, #85, #13 ) ;
#205 = ORIENTED_EDGE ( 'NONE', *, *, #15, .F. ) ;
#206 = CARTESIAN_POINT ( 'NONE',  ( -1.500000000000000222, 0.000000000000000000, 1.500000000000000000 ) ) ;
#207 = APPROVAL_DATE_TIME ( #163, #279 ) ;
#208 = PERSON_AND_ORGANIZATION ( #176, #60 ) ;
#209 = LOCAL_TIME ( 12, 38, 9.000000000000000000, #233 ) ;
#210 = APPROVAL_ROLE ( '' ) ;
#211 = APPLICATION_PROTOCOL_DEFINITION ( 'international standard', 'config_control_design', 1994, #130 ) ;
#212 = EDGE_LOOP ( 'NONE', ( #66, #42, #278, #3 ) ) ;
#213 = ORIENTED_EDGE ( 'NONE', *, *, #15, .T. ) ;
#214 = VERTEX_POINT ( 'NONE', #157 ) ;
#215 = DIRECTION ( 'NONE',  ( -0.000000000000000000, -0.000000000000000000, -1.000000000000000000 ) ) ;
#216 = VECTOR ( 'NONE', #150, 1000.000000000000000 ) ;
#217 = EDGE_LOOP ( 'NONE', ( #93, #33, #79, #267 ) ) ;
#218 = DIRECTION ( 'NONE',  ( 1.000000000000000000, 0.000000000000000000, 0.000000000000000000 ) ) ;
#219 = ADVANCED_FACE ( 'NONE', ( #154 ), #40, .T. ) ;
#220 = DIRECTION ( 'NONE',  ( 1.000000000000000000, 0.000000000000000000, 0.000000000000000000 ) ) ;
#221 = FACE_OUTER_BOUND ( 'NONE', #224, .T. ) ;
#222 = AXIS2_PLACEMENT_3D ( 'NONE', #165, #185, #46 ) ;
#223 = CARTESIAN_POINT ( 'NONE',  ( 0.000000000000000000, 0.000000000000000000, 1.500000000000000000 ) ) ;
#224 = EDGE_LOOP ( 'NONE', ( #297, #83, #10, #303 ) ) ;
#225 = PRODUCT_DEFINITION_SHAPE ( 'NONE', 'NONE',  #25 ) ;
#226 = CARTESIAN_POINT ( 'NONE',  ( 0.000000000000000000, 0.000000000000000000, 161.5000000000000000 ) ) ;
#227 = FACE_OUTER_BOUND ( 'NONE', #217, .T. ) ;
#228 = CIRCLE ( 'NONE', #179, 1.500000000000000222 ) ;
#229 = APPROVAL_PERSON_ORGANIZATION ( #186, #158, #210 ) ;
#230 = ORIENTED_EDGE ( 'NONE', *, *, #258, .F. ) ;
#231 = PERSON_AND_ORGANIZATION_ROLE ( 'classification_officer' ) ;
#232 = ADVANCED_FACE ( 'NONE', ( #92 ), #299, .T. ) ;
#233 = COORDINATED_UNIVERSAL_TIME_OFFSET ( 1, 0, .AHEAD. ) ;
#234 = DATE_TIME_ROLE ( 'creation_date' ) ;
#235 = CIRCLE ( 'NONE', #276, 0.8000000000000000444 ) ;
#236 = CARTESIAN_POINT ( 'NONE',  ( 0.000000000000000000, 0.000000000000000000, 1.500000000000000000 ) ) ;
#237 = MANIFOLD_SOLID_BREP ( 'Zaoblit1', #263 ) ;
#238 = EDGE_LOOP ( 'NONE', ( #181, #268 ) ) ;
#239 = AXIS2_PLACEMENT_3D ( 'NONE', #246, #304, #41 ) ;
#240 = ORIENTED_EDGE ( 'NONE', *, *, #132, .T. ) ;
#241 = EDGE_CURVE ( 'NONE', #122, #214, #4, .T. ) ;
#242 = DIRECTION ( 'NONE',  ( 1.000000000000000000, 0.000000000000000000, 0.000000000000000000 ) ) ;
#243 = DATE_TIME_ROLE ( 'classification_date' ) ;
#244 = ORIENTED_EDGE ( 'NONE', *, *, #50, .F. ) ;
#245 = CIRCLE ( 'NONE', #114, 1.500000000000000222 ) ;
#246 = CARTESIAN_POINT ( 'NONE',  ( -1.000000000000000000, 1.224646799147353207E-16, 1.700000000000007061 ) ) ;
#247 = EDGE_CURVE ( 'NONE', #27, #78, #19, .T. ) ;
#248 = DIRECTION ( 'NONE',  ( 0.000000000000000000, 0.000000000000000000, 1.000000000000000000 ) ) ;
#249 = APPROVAL ( #105, 'NEURÈENÝ' ) ;
#250 = DIRECTION ( 'NONE',  ( -0.000000000000000000, -0.000000000000000000, -1.000000000000000000 ) ) ;
#251 = CIRCLE ( 'NONE', #239, 0.2000000000000000944 ) ;
#252 = ADVANCED_FACE ( 'NONE', ( #221 ), #159, .T. ) ;
#253 = DIRECTION ( 'NONE',  ( 0.000000000000000000, 0.000000000000000000, 1.000000000000000000 ) ) ;
#254 = DIRECTION ( 'NONE',  ( 1.000000000000000000, 0.000000000000000000, 0.000000000000000000 ) ) ;
#255 = CALENDAR_DATE ( 2022, 7, 7 ) ;
#256 = AXIS2_PLACEMENT_3D ( 'NONE', #103, #193, #295 ) ;
#257 = CC_DESIGN_APPROVAL ( #279, ( #25 ) ) ;
#258 = EDGE_CURVE ( 'NONE', #160, #266, #251, .T. ) ;
#259 = PERSON_AND_ORGANIZATION_ROLE ( 'design_supplier' ) ;
#260 = EDGE_CURVE ( 'NONE', #195, #190, #245, .T. ) ;
#261 = PERSON_AND_ORGANIZATION ( #176, #60 ) ;
#262 = DIRECTION ( 'NONE',  ( 0.000000000000000000, 0.000000000000000000, 1.000000000000000000 ) ) ;
#263 = CLOSED_SHELL ( 'NONE', ( #97, #252, #232, #149, #300, #5, #45, #219, #118 ) ) ;
#264 = LOCAL_TIME ( 12, 38, 9.000000000000000000, #285 ) ;
#265 = SECURITY_CLASSIFICATION_LEVEL ( 'unclassified' ) ;
#266 = VERTEX_POINT ( 'NONE', #112 ) ;
#267 = ORIENTED_EDGE ( 'NONE', *, *, #95, .T. ) ;
#268 = ORIENTED_EDGE ( 'NONE', *, *, #282, .T. ) ;
#269 = CARTESIAN_POINT ( 'NONE',  ( 0.000000000000000000, 0.000000000000000000, 0.000000000000000000 ) ) ;
#270 = CYLINDRICAL_SURFACE ( 'NONE', #143, 0.8000000000000000444 ) ;
#271 = AXIS2_PLACEMENT_3D ( 'NONE', #277, #253, #87 ) ;
#272 = LOCAL_TIME ( 12, 38, 9.000000000000000000, #7 ) ;
#273 = FACE_OUTER_BOUND ( 'NONE', #56, .T. ) ;
#274 = DIRECTION ( 'NONE',  ( 0.000000000000000000, 0.000000000000000000, 1.000000000000000000 ) ) ;
#275 = CARTESIAN_POINT ( 'NONE',  ( 0.000000000000000000, 0.000000000000000000, 1.700000000000007061 ) ) ;
#276 = AXIS2_PLACEMENT_3D ( 'NONE', #172, #124, #168 ) ;
#277 = CARTESIAN_POINT ( 'NONE',  ( 0.000000000000000000, 0.000000000000000000, 1.700000000000007061 ) ) ;
#278 = ORIENTED_EDGE ( 'NONE', *, *, #50, .T. ) ;
#279 = APPROVAL ( #22, 'NEURÈENÝ' ) ;
#280 = CARTESIAN_POINT ( 'NONE',  ( 0.000000000000000000, 0.000000000000000000, 161.5000000000000000 ) ) ;
#281 = EDGE_LOOP ( 'NONE', ( #145, #73 ) ) ;
#282 = EDGE_CURVE ( 'NONE', #266, #78, #81, .T. ) ;
#283 = PLANE ( 'NONE',  #284 ) ;
#284 = AXIS2_PLACEMENT_3D ( 'NONE', #236, #144, #72 ) ;
#285 = COORDINATED_UNIVERSAL_TIME_OFFSET ( 1, 0, .AHEAD. ) ;
#286 =( NAMED_UNIT ( * ) SI_UNIT ( $, .STERADIAN. ) SOLID_ANGLE_UNIT ( ) );
#287 = ORIENTED_EDGE ( 'NONE', *, *, #258, .T. ) ;
#288 = PERSON_AND_ORGANIZATION_ROLE ( 'design_owner' ) ;
#289 = TOROIDAL_SURFACE ( 'NONE', #271, 1.000000000000000000, 0.2000000000000000111 ) ;
#290 = AXIS2_PLACEMENT_3D ( 'NONE', #201, #133, #12 ) ;
#291 = VERTEX_POINT ( 'NONE', #301 ) ;
#292 = EDGE_LOOP ( 'NONE', ( #230, #169, #296, #117 ) ) ;
#293 = CARTESIAN_POINT ( 'NONE',  ( 0.000000000000000000, 0.000000000000000000, 161.5000000000000000 ) ) ;
#294 = DATE_AND_TIME ( #21, #192 ) ;
#295 = DIRECTION ( 'NONE',  ( 1.000000000000000000, 0.000000000000000000, 0.000000000000000000 ) ) ;
#296 = ORIENTED_EDGE ( 'NONE', *, *, #247, .T. ) ;
#297 = ORIENTED_EDGE ( 'NONE', *, *, #184, .F. ) ;
#298 = CARTESIAN_POINT ( 'NONE',  ( -0.8000000000000000444, 0.000000000000000000, 161.5000000000000000 ) ) ;
#299 = CYLINDRICAL_SURFACE ( 'NONE', #174, 1.500000000000000222 ) ;
#300 = ADVANCED_FACE ( 'NONE', ( #88, #305 ), #283, .T. ) ;
#301 = CARTESIAN_POINT ( 'NONE',  ( -1.500000000000000222, 0.000000000000000000, 0.000000000000000000 ) ) ;
#302 = EDGE_CURVE ( 'NONE', #27, #160, #91, .T. ) ;
#303 = ORIENTED_EDGE ( 'NONE', *, *, #132, .F. ) ;
#304 = DIRECTION ( 'NONE',  ( 1.224646799147353207E-16, 1.000000000000000000, -0.000000000000000000 ) ) ;
#305 = FACE_OUTER_BOUND ( 'NONE', #281, .T. ) ;
#306 = PERSON_AND_ORGANIZATION_ROLE ( 'creator' ) ;
#307 = ADVANCED_BREP_SHAPE_REPRESENTATION ( '1e6b', ( #237, #129 ), #189 ) ;
ENDSEC;
END-ISO-10303-21;
