ISO-10303-21;
HEADER;
FILE_DESCRIPTION (( 'STEP AP203' ),
    '1' );
FILE_NAME ('9aed.STEP',
    '2022-07-07T10:32:15',
    ( '' ),
    ( '' ),
    'SwSTEP 2.0',
    'SolidWorks 2019',
    '' );
FILE_SCHEMA (( 'CONFIG_CONTROL_DESIGN' ));
ENDSEC;

DATA;
#1 = CARTESIAN_POINT ( 'NONE',  ( 0.000000000000000000, 0.000000000000000000, 3.000000000000000000 ) ) ;
#2 = EDGE_CURVE ( 'NONE', #163, #83, #185, .T. ) ;
#3 = DIRECTION ( 'NONE',  ( -1.000000000000000000, 0.000000000000000000, 0.000000000000000000 ) ) ;
#4 = DIRECTION ( 'NONE',  ( 1.000000000000000000, 0.000000000000000000, 0.000000000000000000 ) ) ;
#5 = CC_DESIGN_SECURITY_CLASSIFICATION ( #262, ( #160 ) ) ;
#6 = DIRECTION ( 'NONE',  ( -1.000000000000000000, 0.000000000000000000, 0.000000000000000000 ) ) ;
#7 = EDGE_CURVE ( 'NONE', #56, #85, #305, .T. ) ;
#8 = DIRECTION ( 'NONE',  ( -0.000000000000000000, -0.000000000000000000, -1.000000000000000000 ) ) ;
#9 = CIRCLE ( 'NONE', #207, 1.500000000000000222 ) ;
#10 = EDGE_LOOP ( 'NONE', ( #19, #224 ) ) ;
#11 = CLOSED_SHELL ( 'NONE', ( #13, #199, #149, #270, #43, #174, #186, #78, #226 ) ) ;
#12 = CC_DESIGN_APPROVAL ( #155, ( #160 ) ) ;
#13 = ADVANCED_FACE ( 'NONE', ( #297 ), #80, .F. ) ;
#14 = CALENDAR_DATE ( 2022, 7, 7 ) ;
#15 = ORIENTED_EDGE ( 'NONE', *, *, #218, .T. ) ;
#16 = PERSON_AND_ORGANIZATION ( #172, #229 ) ;
#17 = CARTESIAN_POINT ( 'NONE',  ( 0.000000000000000000, 0.000000000000000000, 3.199999999999994404 ) ) ;
#18 = DATE_AND_TIME ( #227, #249 ) ;
#19 = ORIENTED_EDGE ( 'NONE', *, *, #115, .F. ) ;
#20 = AXIS2_PLACEMENT_3D ( 'NONE', #53, #8, #31 ) ;
#21 = PERSON_AND_ORGANIZATION_ROLE ( 'classification_officer' ) ;
#22 = DIRECTION ( 'NONE',  ( -0.000000000000000000, -0.000000000000000000, -1.000000000000000000 ) ) ;
#23 = PERSON_AND_ORGANIZATION ( #172, #229 ) ;
#24 = DIRECTION ( 'NONE',  ( 1.000000000000000000, 0.000000000000000000, 0.000000000000000000 ) ) ;
#25 = AXIS2_PLACEMENT_3D ( 'NONE', #255, #235, #114 ) ;
#26 = PERSON_AND_ORGANIZATION ( #172, #229 ) ;
#27 = VERTEX_POINT ( 'NONE', #117 ) ;
#28 = APPROVAL ( #162, 'NEURÈENÝ' ) ;
#29 = CYLINDRICAL_SURFACE ( 'NONE', #32, 1.500000000000000222 ) ;
#30 = DIRECTION ( 'NONE',  ( -1.000000000000000000, 1.224646799147353207E-16, 0.000000000000000000 ) ) ;
#31 = DIRECTION ( 'NONE',  ( -1.000000000000000000, 0.000000000000000000, 0.000000000000000000 ) ) ;
#32 = AXIS2_PLACEMENT_3D ( 'NONE', #216, #196, #77 ) ;
#33 = ORIENTED_EDGE ( 'NONE', *, *, #59, .T. ) ;
#34 = CC_DESIGN_PERSON_AND_ORGANIZATION_ASSIGNMENT ( #223, #206, ( #76 ) ) ;
#35 = LOCAL_TIME ( 12, 32, 15.00000000000000000, #41 ) ;
#36 = ORIENTED_EDGE ( 'NONE', *, *, #256, .T. ) ;
#37 = PRODUCT_DEFINITION ( 'NEZNÁMÝ', '', #160, #99 ) ;
#38 = ORIENTED_EDGE ( 'NONE', *, *, #2, .F. ) ;
#39 = SHAPE_DEFINITION_REPRESENTATION ( #152, #157 ) ;
#40 = DIRECTION ( 'NONE',  ( 0.000000000000000000, 0.000000000000000000, 1.000000000000000000 ) ) ;
#41 = COORDINATED_UNIVERSAL_TIME_OFFSET ( 1, 0, .AHEAD. ) ;
#42 = ORIENTED_EDGE ( 'NONE', *, *, #92, .F. ) ;
#43 = ADVANCED_FACE ( 'NONE', ( #203, #86 ), #257, .T. ) ;
#44 = APPROVAL_ROLE ( '' ) ;
#45 = CARTESIAN_POINT ( 'NONE',  ( -3.000000000000000444, 0.000000000000000000, 3.000000000000000000 ) ) ;
#46 = AXIS2_PLACEMENT_3D ( 'NONE', #289, #237, #244 ) ;
#47 = DIRECTION ( 'NONE',  ( 1.000000000000000000, 0.000000000000000000, -0.000000000000000000 ) ) ;
#48 = COORDINATED_UNIVERSAL_TIME_OFFSET ( 1, 0, .AHEAD. ) ;
#49 = VERTEX_POINT ( 'NONE', #140 ) ;
#50 = DIRECTION ( 'NONE',  ( 0.000000000000000000, -1.000000000000000000, 0.000000000000000000 ) ) ;
#51 = CARTESIAN_POINT ( 'NONE',  ( -1.700000000000000400, 2.081899558550500773E-16, 3.199999999999994404 ) ) ;
#52 = FACE_OUTER_BOUND ( 'NONE', #154, .T. ) ;
#53 = CARTESIAN_POINT ( 'NONE',  ( 0.000000000000000000, 0.000000000000000000, 3.000000000000000000 ) ) ;
#54 = CC_DESIGN_APPROVAL ( #287, ( #37 ) ) ;
#55 = CARTESIAN_POINT ( 'NONE',  ( 1.500000000000000222, 1.836970198721030181E-16, 103.0000000000000142 ) ) ;
#56 = VERTEX_POINT ( 'NONE', #45 ) ;
#57 = AXIS2_PLACEMENT_3D ( 'NONE', #51, #146, #30 ) ;
#58 = ORIENTED_EDGE ( 'NONE', *, *, #218, .F. ) ;
#59 = EDGE_CURVE ( 'NONE', #156, #83, #9, .T. ) ;
#60 =( NAMED_UNIT ( * ) PLANE_ANGLE_UNIT ( ) SI_UNIT ( $, .RADIAN. ) );
#61 = DATE_AND_TIME ( #71, #35 ) ;
#62 = DIRECTION ( 'NONE',  ( 0.000000000000000000, 0.000000000000000000, 1.000000000000000000 ) ) ;
#63 = APPROVAL_STATUS ( 'not_yet_approved' ) ;
#64 = DIRECTION ( 'NONE',  ( 0.000000000000000000, 0.000000000000000000, 1.000000000000000000 ) ) ;
#65 = PRODUCT_RELATED_PRODUCT_CATEGORY ( 'detail', '', ( #76 ) ) ;
#66 = ORIENTED_EDGE ( 'NONE', *, *, #165, .T. ) ;
#67 = AXIS2_PLACEMENT_3D ( 'NONE', #88, #191, #282 ) ;
#68 = CALENDAR_DATE ( 2022, 7, 7 ) ;
#69 = EDGE_LOOP ( 'NONE', ( #298, #175 ) ) ;
#70 = CIRCLE ( 'NONE', #46, 1.700000000000000400 ) ;
#71 = CALENDAR_DATE ( 2022, 7, 7 ) ;
#72 = DIRECTION ( 'NONE',  ( 1.000000000000000000, 0.000000000000000000, 0.000000000000000000 ) ) ;
#73 = PLANE ( 'NONE',  #268 ) ;
#74 = DIRECTION ( 'NONE',  ( 1.000000000000000000, 0.000000000000000000, 0.000000000000000000 ) ) ;
#75 = MANIFOLD_SOLID_BREP ( 'Zaoblit1', #11 ) ;
#76 = PRODUCT ( '9aed', '9aed', '', ( #135 ) ) ;
#77 = DIRECTION ( 'NONE',  ( -1.000000000000000000, 0.000000000000000000, 0.000000000000000000 ) ) ;
#78 = ADVANCED_FACE ( 'NONE', ( #205 ), #304, .T. ) ;
#79 = CARTESIAN_POINT ( 'NONE',  ( 0.000000000000000000, 0.000000000000000000, 103.0000000000000142 ) ) ;
#80 = TOROIDAL_SURFACE ( 'NONE', #102, 1.700000000000000400, 0.2000000000000000111 ) ;
#81 = LINE ( 'NONE', #118, #176 ) ;
#82 =( GEOMETRIC_REPRESENTATION_CONTEXT ( 3 ) GLOBAL_UNCERTAINTY_ASSIGNED_CONTEXT ( ( #204 ) ) GLOBAL_UNIT_ASSIGNED_CONTEXT ( ( #125, #60, #104 ) ) REPRESENTATION_CONTEXT ( 'NONE', 'WORKASPACE' ) );
#83 = VERTEX_POINT ( 'NONE', #111 ) ;
#84 = EDGE_LOOP ( 'NONE', ( #252, #109, #33, #38 ) ) ;
#85 = VERTEX_POINT ( 'NONE', #189 ) ;
#86 = FACE_OUTER_BOUND ( 'NONE', #69, .T. ) ;
#87 = APPROVAL_PERSON_ORGANIZATION ( #202, #287, #283 ) ;
#88 = CARTESIAN_POINT ( 'NONE',  ( 0.000000000000000000, 0.000000000000000000, 3.000000000000000000 ) ) ;
#89 = ORIENTED_EDGE ( 'NONE', *, *, #145, .T. ) ;
#90 = APPROVAL_DATE_TIME ( #18, #155 ) ;
#91 = CARTESIAN_POINT ( 'NONE',  ( 0.000000000000000000, 0.000000000000000000, 103.0000000000000142 ) ) ;
#92 = EDGE_CURVE ( 'NONE', #85, #56, #217, .T. ) ;
#93 = CARTESIAN_POINT ( 'NONE',  ( 0.000000000000000000, 0.000000000000000000, 103.0000000000000142 ) ) ;
#94 = AXIS2_PLACEMENT_3D ( 'NONE', #192, #286, #164 ) ;
#95 = FACE_OUTER_BOUND ( 'NONE', #10, .T. ) ;
#96 = DIRECTION ( 'NONE',  ( 1.000000000000000000, 0.000000000000000000, -0.000000000000000000 ) ) ;
#97 = EDGE_CURVE ( 'NONE', #56, #158, #134, .T. ) ;
#98 = AXIS2_PLACEMENT_3D ( 'NONE', #100, #148, #242 ) ;
#99 = DESIGN_CONTEXT ( 'detailed design', #177, 'design' ) ;
#100 = CARTESIAN_POINT ( 'NONE',  ( 0.000000000000000000, 0.000000000000000000, 3.199999999999994404 ) ) ;
#101 = CYLINDRICAL_SURFACE ( 'NONE', #272, 3.000000000000000444 ) ;
#102 = AXIS2_PLACEMENT_3D ( 'NONE', #17, #259, #201 ) ;
#103 = CIRCLE ( 'NONE', #98, 1.500000000000000222 ) ;
#104 =( NAMED_UNIT ( * ) SI_UNIT ( $, .STERADIAN. ) SOLID_ANGLE_UNIT ( ) );
#105 = ORIENTED_EDGE ( 'NONE', *, *, #121, .T. ) ;
#106 = AXIS2_PLACEMENT_3D ( 'NONE', #93, #64, #72 ) ;
#107 = APPROVAL_PERSON_ORGANIZATION ( #306, #155, #44 ) ;
#108 = APPROVAL_DATE_TIME ( #184, #287 ) ;
#109 = ORIENTED_EDGE ( 'NONE', *, *, #168, .T. ) ;
#110 = CC_DESIGN_PERSON_AND_ORGANIZATION_ASSIGNMENT ( #300, #278, ( #160 ) ) ;
#111 = CARTESIAN_POINT ( 'NONE',  ( -1.500000000000000222, 0.000000000000000000, 3.199999999999994404 ) ) ;
#112 = PERSON_AND_ORGANIZATION_ROLE ( 'creator' ) ;
#113 = CARTESIAN_POINT ( 'NONE',  ( -1.500000000000000222, 0.000000000000000000, 103.0000000000000142 ) ) ;
#114 = DIRECTION ( 'NONE',  ( 1.000000000000000000, 0.000000000000000000, 0.000000000000000000 ) ) ;
#115 = EDGE_CURVE ( 'NONE', #158, #27, #253, .T. ) ;
#116 = DATE_AND_TIME ( #68, #219 ) ;
#117 = CARTESIAN_POINT ( 'NONE',  ( 3.000000000000000444, 3.673940397442060361E-16, 0.000000000000000000 ) ) ;
#118 = CARTESIAN_POINT ( 'NONE',  ( 1.500000000000000222, 1.836970198721030181E-16, 103.0000000000000142 ) ) ;
#119 = LOCAL_TIME ( 12, 32, 15.00000000000000000, #48 ) ;
#120 = DIRECTION ( 'NONE',  ( -0.000000000000000000, -0.000000000000000000, -1.000000000000000000 ) ) ;
#121 = EDGE_CURVE ( 'NONE', #163, #159, #240, .T. ) ;
#122 = LINE ( 'NONE', #213, #243 ) ;
#123 = DIRECTION ( 'NONE',  ( -0.000000000000000000, -0.000000000000000000, -1.000000000000000000 ) ) ;
#124 = VECTOR ( 'NONE', #277, 1000.000000000000000 ) ;
#125 =( LENGTH_UNIT ( ) NAMED_UNIT ( * ) SI_UNIT ( .MILLI., .METRE. ) );
#126 = ORIENTED_EDGE ( 'NONE', *, *, #97, .T. ) ;
#127 = APPLICATION_PROTOCOL_DEFINITION ( 'international standard', 'config_control_design', 1994, #265 ) ;
#128 = CC_DESIGN_PERSON_AND_ORGANIZATION_ASSIGNMENT ( #230, #21, ( #262 ) ) ;
#129 = APPROVAL_DATE_TIME ( #182, #28 ) ;
#130 = CIRCLE ( 'NONE', #171, 1.500000000000000222 ) ;
#131 = DIRECTION ( 'NONE',  ( 0.000000000000000000, 0.000000000000000000, 1.000000000000000000 ) ) ;
#132 = ORIENTED_EDGE ( 'NONE', *, *, #121, .F. ) ;
#133 = CC_DESIGN_DATE_AND_TIME_ASSIGNMENT ( #116, #258, ( #262 ) ) ;
#134 = LINE ( 'NONE', #183, #124 ) ;
#135 = MECHANICAL_CONTEXT ( 'NONE', #265, 'mechanical' ) ;
#136 = ORIENTED_EDGE ( 'NONE', *, *, #302, .F. ) ;
#137 = SECURITY_CLASSIFICATION_LEVEL ( 'unclassified' ) ;
#138 = DIRECTION ( 'NONE',  ( 1.000000000000000000, 0.000000000000000000, 0.000000000000000000 ) ) ;
#139 = CARTESIAN_POINT ( 'NONE',  ( 0.000000000000000000, 0.000000000000000000, 0.000000000000000000 ) ) ;
#140 = CARTESIAN_POINT ( 'NONE',  ( -1.700000000000000400, 2.081899558550500773E-16, 2.999999999999997335 ) ) ;
#141 = CALENDAR_DATE ( 2022, 7, 7 ) ;
#142 = ORIENTED_EDGE ( 'NONE', *, *, #165, .F. ) ;
#143 = DIRECTION ( 'NONE',  ( -0.000000000000000000, -0.000000000000000000, -1.000000000000000000 ) ) ;
#144 = APPROVAL_PERSON_ORGANIZATION ( #26, #28, #234 ) ;
#145 = EDGE_CURVE ( 'NONE', #27, #158, #188, .T. ) ;
#146 = DIRECTION ( 'NONE',  ( 1.224646799147353207E-16, 1.000000000000000000, -0.000000000000000000 ) ) ;
#147 = CARTESIAN_POINT ( 'NONE',  ( 1.700000000000000400, 0.000000000000000000, 2.999999999999997335 ) ) ;
#148 = DIRECTION ( 'NONE',  ( 0.000000000000000000, 0.000000000000000000, 1.000000000000000000 ) ) ;
#149 = ADVANCED_FACE ( 'NONE', ( #52 ), #101, .T. ) ;
#150 = AXIS2_PLACEMENT_3D ( 'NONE', #261, #50, #166 ) ;
#151 = CARTESIAN_POINT ( 'NONE',  ( -1.500000000000000222, 0.000000000000000000, 103.0000000000000142 ) ) ;
#152 = PRODUCT_DEFINITION_SHAPE ( 'NONE', 'NONE',  #37 ) ;
#153 = VERTEX_POINT ( 'NONE', #147 ) ;
#154 = EDGE_LOOP ( 'NONE', ( #42, #271, #89, #161 ) ) ;
#155 = APPROVAL ( #232, 'NEURÈENÝ' ) ;
#156 = VERTEX_POINT ( 'NONE', #193 ) ;
#157 = ADVANCED_BREP_SHAPE_REPRESENTATION ( '9aed', ( #75, #190 ), #82 ) ;
#158 = VERTEX_POINT ( 'NONE', #167 ) ;
#159 = VERTEX_POINT ( 'NONE', #55 ) ;
#160 = PRODUCT_DEFINITION_FORMATION_WITH_SPECIFIED_SOURCE ( 'LIBOVOLNÝ', '', #76, .NOT_KNOWN. ) ;
#161 = ORIENTED_EDGE ( 'NONE', *, *, #97, .F. ) ;
#162 = APPROVAL_STATUS ( 'not_yet_approved' ) ;
#163 = VERTEX_POINT ( 'NONE', #151 ) ;
#164 = DIRECTION ( 'NONE',  ( 1.000000000000000000, 0.000000000000000000, 0.000000000000000000 ) ) ;
#165 = EDGE_CURVE ( 'NONE', #49, #153, #245, .T. ) ;
#166 = DIRECTION ( 'NONE',  ( 0.000000000000000000, 0.000000000000000000, -1.000000000000000000 ) ) ;
#167 = CARTESIAN_POINT ( 'NONE',  ( -3.000000000000000444, 0.000000000000000000, 0.000000000000000000 ) ) ;
#168 = EDGE_CURVE ( 'NONE', #159, #156, #81, .T. ) ;
#169 = DIRECTION ( 'NONE',  ( -0.000000000000000000, -0.000000000000000000, -1.000000000000000000 ) ) ;
#170 = CARTESIAN_POINT ( 'NONE',  ( 0.000000000000000000, 0.000000000000000000, 103.0000000000000142 ) ) ;
#171 = AXIS2_PLACEMENT_3D ( 'NONE', #79, #267, #74 ) ;
#172 = PERSON ( 'NEURÈENÝ', 'NEURÈENÝ', 'NEURÈENÝ', ('NEURÈENÝ'), ('NEURÈENÝ'), ('NEURÈENÝ') ) ;
#173 = ORIENTED_EDGE ( 'NONE', *, *, #7, .F. ) ;
#174 = ADVANCED_FACE ( 'NONE', ( #95 ), #73, .F. ) ;
#175 = ORIENTED_EDGE ( 'NONE', *, *, #92, .T. ) ;
#176 = VECTOR ( 'NONE', #143, 1000.000000000000000 ) ;
#177 = APPLICATION_CONTEXT ( 'configuration controlled 3d designs of mechanical parts and assemblies' ) ;
#178 = EDGE_LOOP ( 'NONE', ( #15, #66 ) ) ;
#179 = ORIENTED_EDGE ( 'NONE', *, *, #115, .T. ) ;
#180 = AXIS2_PLACEMENT_3D ( 'NONE', #91, #40, #47 ) ;
#181 = ORIENTED_EDGE ( 'NONE', *, *, #168, .F. ) ;
#182 = DATE_AND_TIME ( #141, #119 ) ;
#183 = CARTESIAN_POINT ( 'NONE',  ( -3.000000000000000444, 0.000000000000000000, 3.000000000000000000 ) ) ;
#184 = DATE_AND_TIME ( #14, #198 ) ;
#185 = LINE ( 'NONE', #113, #197 ) ;
#186 = ADVANCED_FACE ( 'NONE', ( #211 ), #236, .T. ) ;
#187 = DIRECTION ( 'NONE',  ( 1.000000000000000000, 0.000000000000000000, 0.000000000000000000 ) ) ;
#188 = CIRCLE ( 'NONE', #221, 3.000000000000000444 ) ;
#189 = CARTESIAN_POINT ( 'NONE',  ( 3.000000000000000444, 3.673940397442060361E-16, 3.000000000000000000 ) ) ;
#190 = AXIS2_PLACEMENT_3D ( 'NONE', #139, #131, #187 ) ;
#191 = DIRECTION ( 'NONE',  ( 0.000000000000000000, 0.000000000000000000, 1.000000000000000000 ) ) ;
#192 = CARTESIAN_POINT ( 'NONE',  ( 0.000000000000000000, 0.000000000000000000, 3.199999999999994404 ) ) ;
#193 = CARTESIAN_POINT ( 'NONE',  ( 1.500000000000000222, 1.836970198721030181E-16, 3.199999999999994404 ) ) ;
#194 = DIRECTION ( 'NONE',  ( 1.000000000000000000, 0.000000000000000000, 0.000000000000000000 ) ) ;
#195 = CARTESIAN_POINT ( 'NONE',  ( 0.000000000000000000, 0.000000000000000000, 3.000000000000000000 ) ) ;
#196 = DIRECTION ( 'NONE',  ( -0.000000000000000000, -0.000000000000000000, -1.000000000000000000 ) ) ;
#197 = VECTOR ( 'NONE', #22, 1000.000000000000000 ) ;
#198 = LOCAL_TIME ( 12, 32, 15.00000000000000000, #200 ) ;
#199 = ADVANCED_FACE ( 'NONE', ( #288 ), #29, .T. ) ;
#200 = COORDINATED_UNIVERSAL_TIME_OFFSET ( 1, 0, .AHEAD. ) ;
#201 = DIRECTION ( 'NONE',  ( 1.000000000000000000, 0.000000000000000000, 0.000000000000000000 ) ) ;
#202 = PERSON_AND_ORGANIZATION ( #172, #229 ) ;
#203 = FACE_BOUND ( 'NONE', #178, .T. ) ;
#204 = UNCERTAINTY_MEASURE_WITH_UNIT (LENGTH_MEASURE( 1.000000000000000082E-05 ), #125, 'distance_accuracy_value', 'NONE');
#205 = FACE_OUTER_BOUND ( 'NONE', #220, .T. ) ;
#206 = PERSON_AND_ORGANIZATION_ROLE ( 'design_owner' ) ;
#207 = AXIS2_PLACEMENT_3D ( 'NONE', #231, #276, #138 ) ;
#208 = DIRECTION ( 'NONE',  ( 1.000000000000000000, 0.000000000000000000, 0.000000000000000000 ) ) ;
#209 = CC_DESIGN_DATE_AND_TIME_ASSIGNMENT ( #61, #254, ( #37 ) ) ;
#210 = CIRCLE ( 'NONE', #150, 0.2000000000000000944 ) ;
#211 = FACE_OUTER_BOUND ( 'NONE', #274, .T. ) ;
#212 = DIRECTION ( 'NONE',  ( 0.000000000000000000, 0.000000000000000000, 1.000000000000000000 ) ) ;
#213 = CARTESIAN_POINT ( 'NONE',  ( 3.000000000000000444, 3.673940397442060361E-16, 3.000000000000000000 ) ) ;
#214 = AXIS2_PLACEMENT_3D ( 'NONE', #170, #120, #6 ) ;
#215 = DIRECTION ( 'NONE',  ( 0.000000000000000000, 0.000000000000000000, 1.000000000000000000 ) ) ;
#216 = CARTESIAN_POINT ( 'NONE',  ( 0.000000000000000000, 0.000000000000000000, 103.0000000000000142 ) ) ;
#217 = CIRCLE ( 'NONE', #260, 3.000000000000000444 ) ;
#218 = EDGE_CURVE ( 'NONE', #153, #49, #70, .T. ) ;
#219 = LOCAL_TIME ( 12, 32, 15.00000000000000000, #281 ) ;
#220 = EDGE_LOOP ( 'NONE', ( #105, #36 ) ) ;
#221 = AXIS2_PLACEMENT_3D ( 'NONE', #269, #212, #194 ) ;
#222 = CIRCLE ( 'NONE', #57, 0.2000000000000000944 ) ;
#223 = PERSON_AND_ORGANIZATION ( #172, #229 ) ;
#224 = ORIENTED_EDGE ( 'NONE', *, *, #145, .F. ) ;
#225 = ORIENTED_EDGE ( 'NONE', *, *, #264, .F. ) ;
#226 = ADVANCED_FACE ( 'NONE', ( #290 ), #241, .F. ) ;
#227 = CALENDAR_DATE ( 2022, 7, 7 ) ;
#228 = ORIENTED_EDGE ( 'NONE', *, *, #2, .T. ) ;
#229 = ORGANIZATION ( 'NEURÈENÝ', 'NEURÈENÝ', '' ) ;
#230 = PERSON_AND_ORGANIZATION ( #172, #229 ) ;
#231 = CARTESIAN_POINT ( 'NONE',  ( 0.000000000000000000, 0.000000000000000000, 3.199999999999994404 ) ) ;
#232 = APPROVAL_STATUS ( 'not_yet_approved' ) ;
#233 = CARTESIAN_POINT ( 'NONE',  ( 0.000000000000000000, 0.000000000000000000, 3.000000000000000000 ) ) ;
#234 = APPROVAL_ROLE ( '' ) ;
#235 = DIRECTION ( 'NONE',  ( 0.000000000000000000, 0.000000000000000000, 1.000000000000000000 ) ) ;
#236 = CYLINDRICAL_SURFACE ( 'NONE', #214, 1.500000000000000222 ) ;
#237 = DIRECTION ( 'NONE',  ( -0.000000000000000000, -0.000000000000000000, -1.000000000000000000 ) ) ;
#238 = CC_DESIGN_PERSON_AND_ORGANIZATION_ASSIGNMENT ( #16, #296, ( #37 ) ) ;
#239 = DIRECTION ( 'NONE',  ( -0.000000000000000000, -0.000000000000000000, -1.000000000000000000 ) ) ;
#240 = CIRCLE ( 'NONE', #106, 1.500000000000000222 ) ;
#241 = TOROIDAL_SURFACE ( 'NONE', #94, 1.700000000000000400, 0.2000000000000000111 ) ;
#242 = DIRECTION ( 'NONE',  ( 1.000000000000000000, 0.000000000000000000, 0.000000000000000000 ) ) ;
#243 = VECTOR ( 'NONE', #123, 1000.000000000000000 ) ;
#244 = DIRECTION ( 'NONE',  ( 1.000000000000000000, 0.000000000000000000, 0.000000000000000000 ) ) ;
#245 = CIRCLE ( 'NONE', #295, 1.700000000000000400 ) ;
#246 = CC_DESIGN_PERSON_AND_ORGANIZATION_ASSIGNMENT ( #23, #112, ( #160 ) ) ;
#247 = EDGE_LOOP ( 'NONE', ( #301, #292, #275, #142 ) ) ;
#248 = ORIENTED_EDGE ( 'NONE', *, *, #280, .T. ) ;
#249 = LOCAL_TIME ( 12, 32, 15.00000000000000000, #250 ) ;
#250 = COORDINATED_UNIVERSAL_TIME_OFFSET ( 1, 0, .AHEAD. ) ;
#251 = EDGE_LOOP ( 'NONE', ( #136, #248, #58, #225 ) ) ;
#252 = ORIENTED_EDGE ( 'NONE', *, *, #256, .F. ) ;
#253 = CIRCLE ( 'NONE', #293, 3.000000000000000444 ) ;
#254 = DATE_TIME_ROLE ( 'creation_date' ) ;
#255 = CARTESIAN_POINT ( 'NONE',  ( 0.000000000000000000, 0.000000000000000000, 3.000000000000000000 ) ) ;
#256 = EDGE_CURVE ( 'NONE', #159, #163, #130, .T. ) ;
#257 = PLANE ( 'NONE',  #67 ) ;
#258 = DATE_TIME_ROLE ( 'classification_date' ) ;
#259 = DIRECTION ( 'NONE',  ( 0.000000000000000000, 0.000000000000000000, 1.000000000000000000 ) ) ;
#260 = AXIS2_PLACEMENT_3D ( 'NONE', #233, #62, #24 ) ;
#261 = CARTESIAN_POINT ( 'NONE',  ( 1.700000000000000400, 0.000000000000000000, 3.199999999999994404 ) ) ;
#262 = SECURITY_CLASSIFICATION ( '', '', #137 ) ;
#263 = FACE_OUTER_BOUND ( 'NONE', #291, .T. ) ;
#264 = EDGE_CURVE ( 'NONE', #156, #153, #210, .T. ) ;
#265 = APPLICATION_CONTEXT ( 'configuration controlled 3d designs of mechanical parts and assemblies' ) ;
#266 = CYLINDRICAL_SURFACE ( 'NONE', #20, 3.000000000000000444 ) ;
#267 = DIRECTION ( 'NONE',  ( 0.000000000000000000, 0.000000000000000000, 1.000000000000000000 ) ) ;
#268 = AXIS2_PLACEMENT_3D ( 'NONE', #285, #215, #96 ) ;
#269 = CARTESIAN_POINT ( 'NONE',  ( 0.000000000000000000, 0.000000000000000000, 0.000000000000000000 ) ) ;
#270 = ADVANCED_FACE ( 'NONE', ( #263 ), #266, .T. ) ;
#271 = ORIENTED_EDGE ( 'NONE', *, *, #294, .T. ) ;
#272 = AXIS2_PLACEMENT_3D ( 'NONE', #195, #169, #3 ) ;
#273 = ORIENTED_EDGE ( 'NONE', *, *, #302, .T. ) ;
#274 = EDGE_LOOP ( 'NONE', ( #181, #132, #228, #273 ) ) ;
#275 = ORIENTED_EDGE ( 'NONE', *, *, #264, .T. ) ;
#276 = DIRECTION ( 'NONE',  ( 0.000000000000000000, 0.000000000000000000, 1.000000000000000000 ) ) ;
#277 = DIRECTION ( 'NONE',  ( -0.000000000000000000, -0.000000000000000000, -1.000000000000000000 ) ) ;
#278 = PERSON_AND_ORGANIZATION_ROLE ( 'design_supplier' ) ;
#279 = ORIENTED_EDGE ( 'NONE', *, *, #294, .F. ) ;
#280 = EDGE_CURVE ( 'NONE', #83, #49, #222, .T. ) ;
#281 = COORDINATED_UNIVERSAL_TIME_OFFSET ( 1, 0, .AHEAD. ) ;
#282 = DIRECTION ( 'NONE',  ( 1.000000000000000000, 0.000000000000000000, -0.000000000000000000 ) ) ;
#283 = APPROVAL_ROLE ( '' ) ;
#284 = DIRECTION ( 'NONE',  ( 0.000000000000000000, 0.000000000000000000, 1.000000000000000000 ) ) ;
#285 = CARTESIAN_POINT ( 'NONE',  ( 0.000000000000000000, 0.000000000000000000, 0.000000000000000000 ) ) ;
#286 = DIRECTION ( 'NONE',  ( 0.000000000000000000, 0.000000000000000000, 1.000000000000000000 ) ) ;
#287 = APPROVAL ( #63, 'NEURÈENÝ' ) ;
#288 = FACE_OUTER_BOUND ( 'NONE', #84, .T. ) ;
#289 = CARTESIAN_POINT ( 'NONE',  ( 0.000000000000000000, 0.000000000000000000, 3.000000000000000000 ) ) ;
#290 = FACE_OUTER_BOUND ( 'NONE', #247, .T. ) ;
#291 = EDGE_LOOP ( 'NONE', ( #279, #173, #126, #179 ) ) ;
#292 = ORIENTED_EDGE ( 'NONE', *, *, #59, .F. ) ;
#293 = AXIS2_PLACEMENT_3D ( 'NONE', #307, #284, #208 ) ;
#294 = EDGE_CURVE ( 'NONE', #85, #27, #122, .T. ) ;
#295 = AXIS2_PLACEMENT_3D ( 'NONE', #1, #239, #4 ) ;
#296 = PERSON_AND_ORGANIZATION_ROLE ( 'creator' ) ;
#297 = FACE_OUTER_BOUND ( 'NONE', #251, .T. ) ;
#298 = ORIENTED_EDGE ( 'NONE', *, *, #7, .T. ) ;
#299 = CC_DESIGN_APPROVAL ( #28, ( #262 ) ) ;
#300 = PERSON_AND_ORGANIZATION ( #172, #229 ) ;
#301 = ORIENTED_EDGE ( 'NONE', *, *, #280, .F. ) ;
#302 = EDGE_CURVE ( 'NONE', #83, #156, #103, .T. ) ;
#303 = APPLICATION_PROTOCOL_DEFINITION ( 'international standard', 'config_control_design', 1994, #177 ) ;
#304 = PLANE ( 'NONE',  #180 ) ;
#305 = CIRCLE ( 'NONE', #25, 3.000000000000000444 ) ;
#306 = PERSON_AND_ORGANIZATION ( #172, #229 ) ;
#307 = CARTESIAN_POINT ( 'NONE',  ( 0.000000000000000000, 0.000000000000000000, 0.000000000000000000 ) ) ;
ENDSEC;
END-ISO-10303-21;
