ISO-10303-21;
HEADER;
FILE_DESCRIPTION (( 'STEP AP203' ),
    '1' );
FILE_NAME ('13fd.STEP',
    '2023-02-12T12:18:58',
    ( '' ),
    ( '' ),
    'SwSTEP 2.0',
    'SolidWorks 2019',
    '' );
FILE_SCHEMA (( 'CONFIG_CONTROL_DESIGN' ));
ENDSEC;

DATA;
#1 = DIRECTION ( 'NONE',  ( 1.000000000000000000, 0.000000000000000000, 0.000000000000000000 ) ) ;
#2 = DIRECTION ( 'NONE',  ( 0.000000000000000000, 0.000000000000000000, 1.000000000000000000 ) ) ;
#3 = CIRCLE ( 'NONE', #202, 3.000000000000000444 ) ;
#4 = APPROVAL_DATE_TIME ( #117, #197 ) ;
#5 = CARTESIAN_POINT ( 'NONE',  ( 3.000000000000000444, 3.673940397442060361E-16, 250.0000000000000000 ) ) ;
#6 = EDGE_LOOP ( 'NONE', ( #190, #224, #206, #13 ) ) ;
#7 = DATE_TIME_ROLE ( 'classification_date' ) ;
#8 = DIRECTION ( 'NONE',  ( 0.000000000000000000, 0.000000000000000000, 1.000000000000000000 ) ) ;
#9 = CC_DESIGN_PERSON_AND_ORGANIZATION_ASSIGNMENT ( #94, #138, ( #84 ) ) ;
#10 = CARTESIAN_POINT ( 'NONE',  ( 0.000000000000000000, 0.000000000000000000, 5.000000000000000000 ) ) ;
#11 = EDGE_CURVE ( 'NONE', #20, #163, #75, .T. ) ;
#12 = AXIS2_PLACEMENT_3D ( 'NONE', #48, #8, #52 ) ;
#13 = ORIENTED_EDGE ( 'NONE', *, *, #165, .T. ) ;
#14 = CC_DESIGN_APPROVAL ( #132, ( #31 ) ) ;
#15 = PLANE ( 'NONE',  #123 ) ;
#16 = CARTESIAN_POINT ( 'NONE',  ( 0.000000000000000000, 0.000000000000000000, 5.000000000000000000 ) ) ;
#17 = ORIENTED_EDGE ( 'NONE', *, *, #11, .F. ) ;
#18 = CC_DESIGN_PERSON_AND_ORGANIZATION_ASSIGNMENT ( #174, #215, ( #244 ) ) ;
#19 = EDGE_LOOP ( 'NONE', ( #214, #156 ) ) ;
#20 = VERTEX_POINT ( 'NONE', #5 ) ;
#21 = DATE_AND_TIME ( #145, #125 ) ;
#22 = DIRECTION ( 'NONE',  ( 1.000000000000000000, 0.000000000000000000, 0.000000000000000000 ) ) ;
#23 = DIRECTION ( 'NONE',  ( 0.000000000000000000, 0.000000000000000000, 1.000000000000000000 ) ) ;
#24 = CC_DESIGN_SECURITY_CLASSIFICATION ( #31, ( #244 ) ) ;
#25 = CARTESIAN_POINT ( 'NONE',  ( 0.000000000000000000, 0.000000000000000000, 0.000000000000000000 ) ) ;
#26 = CARTESIAN_POINT ( 'NONE',  ( 0.000000000000000000, 0.000000000000000000, 5.000000000000000000 ) ) ;
#27 =( NAMED_UNIT ( * ) PLANE_ANGLE_UNIT ( ) SI_UNIT ( $, .RADIAN. ) );
#28 = CARTESIAN_POINT ( 'NONE',  ( 3.000000000000000444, 3.673940397442060361E-16, 5.000000000000000000 ) ) ;
#29 = ADVANCED_FACE ( 'NONE', ( #62 ), #177, .F. ) ;
#30 = ORIENTED_EDGE ( 'NONE', *, *, #217, .T. ) ;
#31 = SECURITY_CLASSIFICATION ( '', '', #57 ) ;
#32 = APPROVAL_DATE_TIME ( #251, #65 ) ;
#33 = EDGE_CURVE ( 'NONE', #199, #246, #59, .T. ) ;
#34 = CARTESIAN_POINT ( 'NONE',  ( 0.000000000000000000, 0.000000000000000000, 250.0000000000000000 ) ) ;
#35 = CYLINDRICAL_SURFACE ( 'NONE', #193, 6.000000000000000888 ) ;
#36 = PERSON_AND_ORGANIZATION ( #194, #239 ) ;
#37 = FACE_OUTER_BOUND ( 'NONE', #243, .T. ) ;
#38 = APPLICATION_PROTOCOL_DEFINITION ( 'international standard', 'config_control_design', 1994, #186 ) ;
#39 = ADVANCED_FACE ( 'NONE', ( #37 ), #15, .T. ) ;
#40 = CARTESIAN_POINT ( 'NONE',  ( -6.000000000000000888, 0.000000000000000000, 5.000000000000000000 ) ) ;
#41 = EDGE_LOOP ( 'NONE', ( #88, #149 ) ) ;
#42 = DIRECTION ( 'NONE',  ( 0.000000000000000000, 0.000000000000000000, 1.000000000000000000 ) ) ;
#43 = EDGE_LOOP ( 'NONE', ( #17, #178, #78, #153 ) ) ;
#44 = VECTOR ( 'NONE', #227, 1000.000000000000000 ) ;
#45 = DIRECTION ( 'NONE',  ( 1.000000000000000000, 0.000000000000000000, 0.000000000000000000 ) ) ;
#46 = MECHANICAL_CONTEXT ( 'NONE', #148, 'mechanical' ) ;
#47 = ORIENTED_EDGE ( 'NONE', *, *, #114, .F. ) ;
#48 = CARTESIAN_POINT ( 'NONE',  ( 0.000000000000000000, 0.000000000000000000, 250.0000000000000000 ) ) ;
#49 = AXIS2_PLACEMENT_3D ( 'NONE', #10, #166, #168 ) ;
#50 = CYLINDRICAL_SURFACE ( 'NONE', #182, 3.000000000000000444 ) ;
#51 = VECTOR ( 'NONE', #71, 1000.000000000000000 ) ;
#52 = DIRECTION ( 'NONE',  ( 1.000000000000000000, 0.000000000000000000, 0.000000000000000000 ) ) ;
#53 = VERTEX_POINT ( 'NONE', #40 ) ;
#54 = ORIENTED_EDGE ( 'NONE', *, *, #11, .T. ) ;
#55 = CALENDAR_DATE ( 2023, 12, 2 ) ;
#56 = COORDINATED_UNIVERSAL_TIME_OFFSET ( 1, 0, .AHEAD. ) ;
#57 = SECURITY_CLASSIFICATION_LEVEL ( 'unclassified' ) ;
#58 = PERSON_AND_ORGANIZATION ( #194, #239 ) ;
#59 = LINE ( 'NONE', #142, #97 ) ;
#60 = PERSON_AND_ORGANIZATION_ROLE ( 'classification_officer' ) ;
#61 = CARTESIAN_POINT ( 'NONE',  ( 3.000000000000000444, 3.673940397442060361E-16, 250.0000000000000000 ) ) ;
#62 = FACE_OUTER_BOUND ( 'NONE', #19, .T. ) ;
#63 = LOCAL_TIME ( 13, 18, 58.00000000000000000, #56 ) ;
#64 = LINE ( 'NONE', #87, #51 ) ;
#65 = APPROVAL ( #160, 'NEURÈENÝ' ) ;
#66 = LINE ( 'NONE', #61, #220 ) ;
#67 = AXIS2_PLACEMENT_3D ( 'NONE', #198, #144, #96 ) ;
#68 = CYLINDRICAL_SURFACE ( 'NONE', #169, 3.000000000000000444 ) ;
#69 = DIRECTION ( 'NONE',  ( 1.000000000000000000, 0.000000000000000000, 0.000000000000000000 ) ) ;
#70 = CC_DESIGN_PERSON_AND_ORGANIZATION_ASSIGNMENT ( #106, #60, ( #31 ) ) ;
#71 = DIRECTION ( 'NONE',  ( -0.000000000000000000, -0.000000000000000000, -1.000000000000000000 ) ) ;
#72 = CIRCLE ( 'NONE', #176, 3.000000000000000444 ) ;
#73 = CARTESIAN_POINT ( 'NONE',  ( 0.000000000000000000, 0.000000000000000000, 5.000000000000000000 ) ) ;
#74 = DATE_AND_TIME ( #172, #76 ) ;
#75 = CIRCLE ( 'NONE', #242, 3.000000000000000444 ) ;
#76 = LOCAL_TIME ( 13, 18, 58.00000000000000000, #111 ) ;
#77 = DATE_AND_TIME ( #137, #63 ) ;
#78 = ORIENTED_EDGE ( 'NONE', *, *, #213, .T. ) ;
#79 = ADVANCED_FACE ( 'NONE', ( #122, #101 ), #98, .T. ) ;
#80 = CIRCLE ( 'NONE', #209, 6.000000000000000888 ) ;
#81 = DIRECTION ( 'NONE',  ( 1.000000000000000000, 0.000000000000000000, -0.000000000000000000 ) ) ;
#82 = PRODUCT_RELATED_PRODUCT_CATEGORY ( 'detail', '', ( #84 ) ) ;
#83 = AXIS2_PLACEMENT_3D ( 'NONE', #167, #110, #85 ) ;
#84 = PRODUCT ( '13fd', '13fd', '', ( #46 ) ) ;
#85 = DIRECTION ( 'NONE',  ( 1.000000000000000000, 0.000000000000000000, 0.000000000000000000 ) ) ;
#86 = DIRECTION ( 'NONE',  ( -0.000000000000000000, -0.000000000000000000, -1.000000000000000000 ) ) ;
#87 = CARTESIAN_POINT ( 'NONE',  ( -6.000000000000000888, 0.000000000000000000, 5.000000000000000000 ) ) ;
#88 = ORIENTED_EDGE ( 'NONE', *, *, #253, .T. ) ;
#89 = DIRECTION ( 'NONE',  ( 1.000000000000000000, 0.000000000000000000, 0.000000000000000000 ) ) ;
#90 = CIRCLE ( 'NONE', #204, 6.000000000000000888 ) ;
#91 = DIRECTION ( 'NONE',  ( 0.000000000000000000, 0.000000000000000000, 1.000000000000000000 ) ) ;
#92 = DIRECTION ( 'NONE',  ( -1.000000000000000000, 0.000000000000000000, 0.000000000000000000 ) ) ;
#93 = APPROVAL_PERSON_ORGANIZATION ( #159, #132, #231 ) ;
#94 = PERSON_AND_ORGANIZATION ( #194, #239 ) ;
#95 = CARTESIAN_POINT ( 'NONE',  ( 0.000000000000000000, 0.000000000000000000, 5.000000000000000000 ) ) ;
#96 = DIRECTION ( 'NONE',  ( 1.000000000000000000, 0.000000000000000000, -0.000000000000000000 ) ) ;
#97 = VECTOR ( 'NONE', #195, 1000.000000000000000 ) ;
#98 = PLANE ( 'NONE',  #105 ) ;
#99 = ORIENTED_EDGE ( 'NONE', *, *, #158, .T. ) ;
#100 = EDGE_CURVE ( 'NONE', #163, #233, #143, .T. ) ;
#101 = FACE_OUTER_BOUND ( 'NONE', #41, .T. ) ;
#102 = ORIENTED_EDGE ( 'NONE', *, *, #213, .F. ) ;
#103 = LOCAL_TIME ( 13, 18, 58.00000000000000000, #152 ) ;
#104 = CARTESIAN_POINT ( 'NONE',  ( -3.000000000000000444, 0.000000000000000000, 5.000000000000000000 ) ) ;
#105 = AXIS2_PLACEMENT_3D ( 'NONE', #180, #2, #81 ) ;
#106 = PERSON_AND_ORGANIZATION ( #194, #239 ) ;
#107 = APPROVAL_PERSON_ORGANIZATION ( #134, #197, #175 ) ;
#108 = DIRECTION ( 'NONE',  ( 0.000000000000000000, 0.000000000000000000, 1.000000000000000000 ) ) ;
#109 = APPROVAL_ROLE ( '' ) ;
#110 = DIRECTION ( 'NONE',  ( 0.000000000000000000, 0.000000000000000000, 1.000000000000000000 ) ) ;
#111 = COORDINATED_UNIVERSAL_TIME_OFFSET ( 1, 0, .AHEAD. ) ;
#112 = MANIFOLD_SOLID_BREP ( 'Pøidat vysunutím3', #236 ) ;
#113 = APPROVAL_STATUS ( 'not_yet_approved' ) ;
#114 = EDGE_CURVE ( 'NONE', #163, #20, #131, .T. ) ;
#115 = AXIS2_PLACEMENT_3D ( 'NONE', #73, #91, #232 ) ;
#116 = CARTESIAN_POINT ( 'NONE',  ( -6.000000000000000888, 0.000000000000000000, 0.000000000000000000 ) ) ;
#117 = DATE_AND_TIME ( #55, #103 ) ;
#118 = ORIENTED_EDGE ( 'NONE', *, *, #114, .T. ) ;
#119 = EDGE_CURVE ( 'NONE', #53, #241, #64, .T. ) ;
#120 = PERSON_AND_ORGANIZATION_ROLE ( 'creator' ) ;
#121 = DATE_TIME_ROLE ( 'creation_date' ) ;
#122 = FACE_BOUND ( 'NONE', #238, .T. ) ;
#123 = AXIS2_PLACEMENT_3D ( 'NONE', #240, #124, #218 ) ;
#124 = DIRECTION ( 'NONE',  ( 0.000000000000000000, 0.000000000000000000, 1.000000000000000000 ) ) ;
#125 = LOCAL_TIME ( 13, 18, 58.00000000000000000, #200 ) ;
#126 = ADVANCED_FACE ( 'NONE', ( #130 ), #223, .T. ) ;
#127 = EDGE_LOOP ( 'NONE', ( #235, #47, #225, #99 ) ) ;
#128 = CARTESIAN_POINT ( 'NONE',  ( 0.000000000000000000, 0.000000000000000000, 0.000000000000000000 ) ) ;
#129 = CARTESIAN_POINT ( 'NONE',  ( 0.000000000000000000, 0.000000000000000000, 5.000000000000000000 ) ) ;
#130 = FACE_OUTER_BOUND ( 'NONE', #6, .T. ) ;
#131 = CIRCLE ( 'NONE', #12, 3.000000000000000444 ) ;
#132 = APPROVAL ( #247, 'NEURÈENÝ' ) ;
#133 = CARTESIAN_POINT ( 'NONE',  ( 0.000000000000000000, 0.000000000000000000, 250.0000000000000000 ) ) ;
#134 = PERSON_AND_ORGANIZATION ( #194, #239 ) ;
#135 = AXIS2_PLACEMENT_3D ( 'NONE', #128, #203, #22 ) ;
#136 = EDGE_CURVE ( 'NONE', #199, #53, #191, .T. ) ;
#137 = CALENDAR_DATE ( 2023, 12, 2 ) ;
#138 = PERSON_AND_ORGANIZATION_ROLE ( 'design_owner' ) ;
#139 = CC_DESIGN_APPROVAL ( #65, ( #244 ) ) ;
#140 = ORIENTED_EDGE ( 'NONE', *, *, #33, .T. ) ;
#141 = ORIENTED_EDGE ( 'NONE', *, *, #158, .F. ) ;
#142 = CARTESIAN_POINT ( 'NONE',  ( 6.000000000000000888, 7.347880794884120722E-16, 5.000000000000000000 ) ) ;
#143 = LINE ( 'NONE', #221, #44 ) ;
#144 = DIRECTION ( 'NONE',  ( 0.000000000000000000, 0.000000000000000000, 1.000000000000000000 ) ) ;
#145 = CALENDAR_DATE ( 2023, 12, 2 ) ;
#146 = FACE_OUTER_BOUND ( 'NONE', #43, .T. ) ;
#147 = DIRECTION ( 'NONE',  ( 0.000000000000000000, 0.000000000000000000, 1.000000000000000000 ) ) ;
#148 = APPLICATION_CONTEXT ( 'configuration controlled 3d designs of mechanical parts and assemblies' ) ;
#149 = ORIENTED_EDGE ( 'NONE', *, *, #136, .T. ) ;
#150 = ORIENTED_EDGE ( 'NONE', *, *, #119, .F. ) ;
#151 = EDGE_LOOP ( 'NONE', ( #188, #140, #30, #150 ) ) ;
#152 = COORDINATED_UNIVERSAL_TIME_OFFSET ( 1, 0, .AHEAD. ) ;
#153 = ORIENTED_EDGE ( 'NONE', *, *, #100, .F. ) ;
#154 = VERTEX_POINT ( 'NONE', #28 ) ;
#155 = ADVANCED_FACE ( 'NONE', ( #248 ), #68, .T. ) ;
#156 = ORIENTED_EDGE ( 'NONE', *, *, #217, .F. ) ;
#157 = ADVANCED_BREP_SHAPE_REPRESENTATION ( '13fd', ( #112, #83 ), #211 ) ;
#158 = EDGE_CURVE ( 'NONE', #233, #154, #3, .T. ) ;
#159 = PERSON_AND_ORGANIZATION ( #194, #239 ) ;
#160 = APPROVAL_STATUS ( 'not_yet_approved' ) ;
#161 = APPLICATION_PROTOCOL_DEFINITION ( 'international standard', 'config_control_design', 1994, #148 ) ;
#162 = CC_DESIGN_APPROVAL ( #197, ( #219 ) ) ;
#163 = VERTEX_POINT ( 'NONE', #207 ) ;
#164 = CARTESIAN_POINT ( 'NONE',  ( 0.000000000000000000, 0.000000000000000000, 250.0000000000000000 ) ) ;
#165 = EDGE_CURVE ( 'NONE', #241, #246, #90, .T. ) ;
#166 = DIRECTION ( 'NONE',  ( -0.000000000000000000, -0.000000000000000000, -1.000000000000000000 ) ) ;
#167 = CARTESIAN_POINT ( 'NONE',  ( 0.000000000000000000, 0.000000000000000000, 0.000000000000000000 ) ) ;
#168 = DIRECTION ( 'NONE',  ( -1.000000000000000000, 0.000000000000000000, 0.000000000000000000 ) ) ;
#169 = AXIS2_PLACEMENT_3D ( 'NONE', #164, #86, #228 ) ;
#170 = PRODUCT_DEFINITION_SHAPE ( 'NONE', 'NONE',  #219 ) ;
#171 = EDGE_CURVE ( 'NONE', #20, #154, #66, .T. ) ;
#172 = CALENDAR_DATE ( 2023, 12, 2 ) ;
#173 = CC_DESIGN_DATE_AND_TIME_ASSIGNMENT ( #21, #7, ( #31 ) ) ;
#174 = PERSON_AND_ORGANIZATION ( #194, #239 ) ;
#175 = APPROVAL_ROLE ( '' ) ;
#176 = AXIS2_PLACEMENT_3D ( 'NONE', #26, #147, #45 ) ;
#177 = PLANE ( 'NONE',  #67 ) ;
#178 = ORIENTED_EDGE ( 'NONE', *, *, #171, .T. ) ;
#179 = PERSON_AND_ORGANIZATION_ROLE ( 'creator' ) ;
#180 = CARTESIAN_POINT ( 'NONE',  ( 0.000000000000000000, 0.000000000000000000, 5.000000000000000000 ) ) ;
#181 = PERSON_AND_ORGANIZATION ( #194, #239 ) ;
#182 = AXIS2_PLACEMENT_3D ( 'NONE', #133, #250, #222 ) ;
#183 = SHAPE_DEFINITION_REPRESENTATION ( #170, #157 ) ;
#184 = FACE_OUTER_BOUND ( 'NONE', #151, .T. ) ;
#185 = UNCERTAINTY_MEASURE_WITH_UNIT (LENGTH_MEASURE( 1.000000000000000082E-05 ), #230, 'distance_accuracy_value', 'NONE');
#186 = APPLICATION_CONTEXT ( 'configuration controlled 3d designs of mechanical parts and assemblies' ) ;
#187 = CC_DESIGN_DATE_AND_TIME_ASSIGNMENT ( #77, #121, ( #219 ) ) ;
#188 = ORIENTED_EDGE ( 'NONE', *, *, #136, .F. ) ;
#189 =( NAMED_UNIT ( * ) SI_UNIT ( $, .STERADIAN. ) SOLID_ANGLE_UNIT ( ) );
#190 = ORIENTED_EDGE ( 'NONE', *, *, #33, .F. ) ;
#191 = CIRCLE ( 'NONE', #115, 6.000000000000000888 ) ;
#192 = CARTESIAN_POINT ( 'NONE',  ( 6.000000000000000888, 7.347880794884120722E-16, 0.000000000000000000 ) ) ;
#193 = AXIS2_PLACEMENT_3D ( 'NONE', #95, #196, #92 ) ;
#194 = PERSON ( 'NEURÈENÝ', 'NEURÈENÝ', 'NEURÈENÝ', ('NEURÈENÝ'), ('NEURÈENÝ'), ('NEURÈENÝ') ) ;
#195 = DIRECTION ( 'NONE',  ( -0.000000000000000000, -0.000000000000000000, -1.000000000000000000 ) ) ;
#196 = DIRECTION ( 'NONE',  ( -0.000000000000000000, -0.000000000000000000, -1.000000000000000000 ) ) ;
#197 = APPROVAL ( #113, 'NEURÈENÝ' ) ;
#198 = CARTESIAN_POINT ( 'NONE',  ( 0.000000000000000000, 0.000000000000000000, 0.000000000000000000 ) ) ;
#199 = VERTEX_POINT ( 'NONE', #208 ) ;
#200 = COORDINATED_UNIVERSAL_TIME_OFFSET ( 1, 0, .AHEAD. ) ;
#201 = DIRECTION ( 'NONE',  ( 0.000000000000000000, 0.000000000000000000, 1.000000000000000000 ) ) ;
#202 = AXIS2_PLACEMENT_3D ( 'NONE', #129, #201, #245 ) ;
#203 = DIRECTION ( 'NONE',  ( 0.000000000000000000, 0.000000000000000000, 1.000000000000000000 ) ) ;
#204 = AXIS2_PLACEMENT_3D ( 'NONE', #25, #108, #89 ) ;
#205 = CC_DESIGN_PERSON_AND_ORGANIZATION_ASSIGNMENT ( #58, #179, ( #219 ) ) ;
#206 = ORIENTED_EDGE ( 'NONE', *, *, #119, .T. ) ;
#207 = CARTESIAN_POINT ( 'NONE',  ( -3.000000000000000444, 0.000000000000000000, 250.0000000000000000 ) ) ;
#208 = CARTESIAN_POINT ( 'NONE',  ( 6.000000000000000888, 7.347880794884120722E-16, 5.000000000000000000 ) ) ;
#209 = AXIS2_PLACEMENT_3D ( 'NONE', #16, #23, #69 ) ;
#210 = ADVANCED_FACE ( 'NONE', ( #146 ), #50, .T. ) ;
#211 =( GEOMETRIC_REPRESENTATION_CONTEXT ( 3 ) GLOBAL_UNCERTAINTY_ASSIGNED_CONTEXT ( ( #185 ) ) GLOBAL_UNIT_ASSIGNED_CONTEXT ( ( #230, #27, #189 ) ) REPRESENTATION_CONTEXT ( 'NONE', 'WORKASPACE' ) );
#212 = COORDINATED_UNIVERSAL_TIME_OFFSET ( 1, 0, .AHEAD. ) ;
#213 = EDGE_CURVE ( 'NONE', #154, #233, #72, .T. ) ;
#214 = ORIENTED_EDGE ( 'NONE', *, *, #165, .F. ) ;
#215 = PERSON_AND_ORGANIZATION_ROLE ( 'design_supplier' ) ;
#216 = CIRCLE ( 'NONE', #135, 6.000000000000000888 ) ;
#217 = EDGE_CURVE ( 'NONE', #246, #241, #216, .T. ) ;
#218 = DIRECTION ( 'NONE',  ( 1.000000000000000000, 0.000000000000000000, -0.000000000000000000 ) ) ;
#219 = PRODUCT_DEFINITION ( 'NEZNÁMÝ', '', #244, #234 ) ;
#220 = VECTOR ( 'NONE', #229, 1000.000000000000000 ) ;
#221 = CARTESIAN_POINT ( 'NONE',  ( -3.000000000000000444, 0.000000000000000000, 250.0000000000000000 ) ) ;
#222 = DIRECTION ( 'NONE',  ( -1.000000000000000000, 0.000000000000000000, 0.000000000000000000 ) ) ;
#223 = CYLINDRICAL_SURFACE ( 'NONE', #49, 6.000000000000000888 ) ;
#224 = ORIENTED_EDGE ( 'NONE', *, *, #253, .F. ) ;
#225 = ORIENTED_EDGE ( 'NONE', *, *, #100, .T. ) ;
#226 = APPROVAL_DATE_TIME ( #74, #132 ) ;
#227 = DIRECTION ( 'NONE',  ( -0.000000000000000000, -0.000000000000000000, -1.000000000000000000 ) ) ;
#228 = DIRECTION ( 'NONE',  ( -1.000000000000000000, 0.000000000000000000, 0.000000000000000000 ) ) ;
#229 = DIRECTION ( 'NONE',  ( -0.000000000000000000, -0.000000000000000000, -1.000000000000000000 ) ) ;
#230 =( LENGTH_UNIT ( ) NAMED_UNIT ( * ) SI_UNIT ( .MILLI., .METRE. ) );
#231 = APPROVAL_ROLE ( '' ) ;
#232 = DIRECTION ( 'NONE',  ( 1.000000000000000000, 0.000000000000000000, 0.000000000000000000 ) ) ;
#233 = VERTEX_POINT ( 'NONE', #104 ) ;
#234 = DESIGN_CONTEXT ( 'detailed design', #186, 'design' ) ;
#235 = ORIENTED_EDGE ( 'NONE', *, *, #171, .F. ) ;
#236 = CLOSED_SHELL ( 'NONE', ( #210, #237, #126, #79, #29, #155, #39 ) ) ;
#237 = ADVANCED_FACE ( 'NONE', ( #184 ), #35, .T. ) ;
#238 = EDGE_LOOP ( 'NONE', ( #141, #102 ) ) ;
#239 = ORGANIZATION ( 'NEURÈENÝ', 'NEURÈENÝ', '' ) ;
#240 = CARTESIAN_POINT ( 'NONE',  ( 0.000000000000000000, 0.000000000000000000, 250.0000000000000000 ) ) ;
#241 = VERTEX_POINT ( 'NONE', #116 ) ;
#242 = AXIS2_PLACEMENT_3D ( 'NONE', #34, #42, #1 ) ;
#243 = EDGE_LOOP ( 'NONE', ( #118, #54 ) ) ;
#244 = PRODUCT_DEFINITION_FORMATION_WITH_SPECIFIED_SOURCE ( 'LIBOVOLNÝ', '', #84, .NOT_KNOWN. ) ;
#245 = DIRECTION ( 'NONE',  ( 1.000000000000000000, 0.000000000000000000, 0.000000000000000000 ) ) ;
#246 = VERTEX_POINT ( 'NONE', #192 ) ;
#247 = APPROVAL_STATUS ( 'not_yet_approved' ) ;
#248 = FACE_OUTER_BOUND ( 'NONE', #127, .T. ) ;
#249 = CC_DESIGN_PERSON_AND_ORGANIZATION_ASSIGNMENT ( #36, #120, ( #244 ) ) ;
#250 = DIRECTION ( 'NONE',  ( -0.000000000000000000, -0.000000000000000000, -1.000000000000000000 ) ) ;
#251 = DATE_AND_TIME ( #254, #255 ) ;
#252 = APPROVAL_PERSON_ORGANIZATION ( #181, #65, #109 ) ;
#253 = EDGE_CURVE ( 'NONE', #53, #199, #80, .T. ) ;
#254 = CALENDAR_DATE ( 2023, 12, 2 ) ;
#255 = LOCAL_TIME ( 13, 18, 58.00000000000000000, #212 ) ;
ENDSEC;
END-ISO-10303-21;
