ISO-10303-21;
HEADER;
FILE_DESCRIPTION (( 'STEP AP203' ),
    '1' );
FILE_NAME ('f4d9.STEP',
    '2023-02-12T12:39:40',
    ( '' ),
    ( '' ),
    'SwSTEP 2.0',
    'SolidWorks 2019',
    '' );
FILE_SCHEMA (( 'CONFIG_CONTROL_DESIGN' ));
ENDSEC;

DATA;
#1 = VERTEX_POINT ( 'NONE', #222 ) ;
#2 = DIRECTION ( 'NONE',  ( 1.000000000000000000, 0.000000000000000000, 0.000000000000000000 ) ) ;
#3 = CARTESIAN_POINT ( 'NONE',  ( 0.000000000000000000, 0.000000000000000000, 3.000000000000000000 ) ) ;
#4 = PRODUCT ( 'f4d9', 'f4d9', '', ( #66 ) ) ;
#5 = DIRECTION ( 'NONE',  ( 1.000000000000000000, 0.000000000000000000, 0.000000000000000000 ) ) ;
#6 = FACE_OUTER_BOUND ( 'NONE', #160, .T. ) ;
#7 = DIRECTION ( 'NONE',  ( 1.000000000000000000, 0.000000000000000000, 0.000000000000000000 ) ) ;
#8 = DIRECTION ( 'NONE',  ( 0.000000000000000000, 0.000000000000000000, 1.000000000000000000 ) ) ;
#9 = AXIS2_PLACEMENT_3D ( 'NONE', #3, #158, #198 ) ;
#10 = CC_DESIGN_APPROVAL ( #193, ( #223 ) ) ;
#11 = EDGE_CURVE ( 'NONE', #136, #1, #72, .T. ) ;
#12 = CARTESIAN_POINT ( 'NONE',  ( 0.000000000000000000, 0.000000000000000000, 0.000000000000000000 ) ) ;
#13 = APPROVAL_ROLE ( '' ) ;
#14 = APPROVAL_ROLE ( '' ) ;
#15 = CC_DESIGN_DATE_AND_TIME_ASSIGNMENT ( #92, #115, ( #223 ) ) ;
#16 = APPROVAL_PERSON_ORGANIZATION ( #95, #193, #14 ) ;
#17 = AXIS2_PLACEMENT_3D ( 'NONE', #127, #181, #5 ) ;
#18 = CARTESIAN_POINT ( 'NONE',  ( 0.000000000000000000, 0.000000000000000000, 0.000000000000000000 ) ) ;
#19 = ORIENTED_EDGE ( 'NONE', *, *, #196, .F. ) ;
#20 = ORIENTED_EDGE ( 'NONE', *, *, #156, .F. ) ;
#21 = APPLICATION_CONTEXT ( 'configuration controlled 3d designs of mechanical parts and assemblies' ) ;
#22 = CARTESIAN_POINT ( 'NONE',  ( 4.000000000000000000, 4.898587196589412829E-16, 0.000000000000000000 ) ) ;
#23 = CC_DESIGN_PERSON_AND_ORGANIZATION_ASSIGNMENT ( #36, #233, ( #122 ) ) ;
#24 = CARTESIAN_POINT ( 'NONE',  ( 0.000000000000000000, 0.000000000000000000, 0.000000000000000000 ) ) ;
#25 = ORIENTED_EDGE ( 'NONE', *, *, #130, .F. ) ;
#26 = CARTESIAN_POINT ( 'NONE',  ( 0.000000000000000000, 0.000000000000000000, 160.0000000000000000 ) ) ;
#27 = CARTESIAN_POINT ( 'NONE',  ( 0.000000000000000000, 0.000000000000000000, 3.000000000000000000 ) ) ;
#28 = AXIS2_PLACEMENT_3D ( 'NONE', #40, #197, #2 ) ;
#29 = AXIS2_PLACEMENT_3D ( 'NONE', #18, #152, #114 ) ;
#30 = DIRECTION ( 'NONE',  ( -0.000000000000000000, -0.000000000000000000, -1.000000000000000000 ) ) ;
#31 = DATE_AND_TIME ( #208, #232 ) ;
#32 = PLANE ( 'NONE',  #159 ) ;
#33 = ADVANCED_FACE ( 'NONE', ( #121 ), #157, .F. ) ;
#34 = DIRECTION ( 'NONE',  ( 1.000000000000000000, 0.000000000000000000, 0.000000000000000000 ) ) ;
#35 = AXIS2_PLACEMENT_3D ( 'NONE', #27, #147, #148 ) ;
#36 = PERSON_AND_ORGANIZATION ( #105, #205 ) ;
#37 = COORDINATED_UNIVERSAL_TIME_OFFSET ( 1, 0, .AHEAD. ) ;
#38 = PERSON_AND_ORGANIZATION_ROLE ( 'creator' ) ;
#39 = ORIENTED_EDGE ( 'NONE', *, *, #11, .F. ) ;
#40 = CARTESIAN_POINT ( 'NONE',  ( 0.000000000000000000, 0.000000000000000000, 160.0000000000000000 ) ) ;
#41 = ADVANCED_FACE ( 'NONE', ( #235 ), #100, .T. ) ;
#42 = DIRECTION ( 'NONE',  ( 1.000000000000000000, 0.000000000000000000, 0.000000000000000000 ) ) ;
#43 = LINE ( 'NONE', #125, #186 ) ;
#44 = CC_DESIGN_APPROVAL ( #107, ( #51 ) ) ;
#45 = CARTESIAN_POINT ( 'NONE',  ( 0.000000000000000000, 0.000000000000000000, 3.000000000000000000 ) ) ;
#46 = CALENDAR_DATE ( 2023, 12, 2 ) ;
#47 = PERSON_AND_ORGANIZATION_ROLE ( 'design_supplier' ) ;
#48 = VERTEX_POINT ( 'NONE', #236 ) ;
#49 = APPLICATION_PROTOCOL_DEFINITION ( 'international standard', 'config_control_design', 1994, #239 ) ;
#50 = SECURITY_CLASSIFICATION_LEVEL ( 'unclassified' ) ;
#51 = SECURITY_CLASSIFICATION ( '', '', #50 ) ;
#52 = DATE_TIME_ROLE ( 'classification_date' ) ;
#53 = EDGE_CURVE ( 'NONE', #192, #251, #141, .T. ) ;
#54 = AXIS2_PLACEMENT_3D ( 'NONE', #226, #246, #163 ) ;
#55 = EDGE_CURVE ( 'NONE', #192, #71, #76, .T. ) ;
#56 = DIRECTION ( 'NONE',  ( 0.000000000000000000, 0.000000000000000000, 1.000000000000000000 ) ) ;
#57 = VERTEX_POINT ( 'NONE', #22 ) ;
#58 = EDGE_CURVE ( 'NONE', #176, #57, #244, .T. ) ;
#59 = PLANE ( 'NONE',  #62 ) ;
#60 = CARTESIAN_POINT ( 'NONE',  ( -4.000000000000000000, 0.000000000000000000, 0.000000000000000000 ) ) ;
#61 = EDGE_CURVE ( 'NONE', #136, #57, #43, .T. ) ;
#62 = AXIS2_PLACEMENT_3D ( 'NONE', #209, #161, #185 ) ;
#63 = CARTESIAN_POINT ( 'NONE',  ( -2.000000000000000000, 0.000000000000000000, 160.0000000000000000 ) ) ;
#64 = DIRECTION ( 'NONE',  ( -0.000000000000000000, -0.000000000000000000, -1.000000000000000000 ) ) ;
#65 = APPROVAL_STATUS ( 'not_yet_approved' ) ;
#66 = MECHANICAL_CONTEXT ( 'NONE', #21, 'mechanical' ) ;
#67 = PERSON_AND_ORGANIZATION ( #105, #205 ) ;
#68 = ORIENTED_EDGE ( 'NONE', *, *, #201, .T. ) ;
#69 = MANIFOLD_SOLID_BREP ( 'Pøidat vysunutím3', #102 ) ;
#70 = DATE_AND_TIME ( #93, #171 ) ;
#71 = VERTEX_POINT ( 'NONE', #203 ) ;
#72 = CIRCLE ( 'NONE', #118, 4.000000000000000000 ) ;
#73 =( NAMED_UNIT ( * ) PLANE_ANGLE_UNIT ( ) SI_UNIT ( $, .RADIAN. ) );
#74 = ORIENTED_EDGE ( 'NONE', *, *, #53, .T. ) ;
#75 = DIRECTION ( 'NONE',  ( 1.000000000000000000, 0.000000000000000000, -0.000000000000000000 ) ) ;
#76 = CIRCLE ( 'NONE', #28, 2.000000000000000000 ) ;
#77 = EDGE_LOOP ( 'NONE', ( #78, #19, #217, #254 ) ) ;
#78 = ORIENTED_EDGE ( 'NONE', *, *, #53, .F. ) ;
#79 = CC_DESIGN_DATE_AND_TIME_ASSIGNMENT ( #250, #52, ( #51 ) ) ;
#80 = VECTOR ( 'NONE', #103, 1000.000000000000000 ) ;
#81 = CC_DESIGN_APPROVAL ( #218, ( #122 ) ) ;
#82 = FACE_BOUND ( 'NONE', #140, .T. ) ;
#83 = CARTESIAN_POINT ( 'NONE',  ( 4.000000000000000000, 4.898587196589412829E-16, 3.000000000000000000 ) ) ;
#84 = ADVANCED_FACE ( 'NONE', ( #108 ), #85, .T. ) ;
#85 = CYLINDRICAL_SURFACE ( 'NONE', #35, 4.000000000000000000 ) ;
#86 = DIRECTION ( 'NONE',  ( 1.000000000000000000, 0.000000000000000000, -0.000000000000000000 ) ) ;
#87 = APPROVAL_PERSON_ORGANIZATION ( #188, #107, #13 ) ;
#88 = CARTESIAN_POINT ( 'NONE',  ( 0.000000000000000000, 0.000000000000000000, 0.000000000000000000 ) ) ;
#89 = COORDINATED_UNIVERSAL_TIME_OFFSET ( 1, 0, .AHEAD. ) ;
#90 = EDGE_CURVE ( 'NONE', #57, #176, #143, .T. ) ;
#91 = ORIENTED_EDGE ( 'NONE', *, *, #255, .F. ) ;
#92 = DATE_AND_TIME ( #46, #252 ) ;
#93 = CALENDAR_DATE ( 2023, 12, 2 ) ;
#94 = ADVANCED_FACE ( 'NONE', ( #6 ), #166, .T. ) ;
#95 = PERSON_AND_ORGANIZATION ( #105, #205 ) ;
#96 = PRODUCT_DEFINITION_SHAPE ( 'NONE', 'NONE',  #223 ) ;
#97 = CALENDAR_DATE ( 2023, 12, 2 ) ;
#98 = ORIENTED_EDGE ( 'NONE', *, *, #61, .T. ) ;
#99 = EDGE_LOOP ( 'NONE', ( #221, #134, #219, #119 ) ) ;
#100 = CYLINDRICAL_SURFACE ( 'NONE', #9, 4.000000000000000000 ) ;
#101 = AXIS2_PLACEMENT_3D ( 'NONE', #26, #106, #129 ) ;
#102 = CLOSED_SHELL ( 'NONE', ( #94, #84, #41, #207, #33, #177, #240 ) ) ;
#103 = DIRECTION ( 'NONE',  ( -0.000000000000000000, -0.000000000000000000, -1.000000000000000000 ) ) ;
#104 = ORIENTED_EDGE ( 'NONE', *, *, #55, .T. ) ;
#105 = PERSON ( 'NEURÈENÝ', 'NEURÈENÝ', 'NEURÈENÝ', ('NEURÈENÝ'), ('NEURÈENÝ'), ('NEURÈENÝ') ) ;
#106 = DIRECTION ( 'NONE',  ( -0.000000000000000000, -0.000000000000000000, -1.000000000000000000 ) ) ;
#107 = APPROVAL ( #137, 'NEURÈENÝ' ) ;
#108 = FACE_OUTER_BOUND ( 'NONE', #200, .T. ) ;
#109 = CARTESIAN_POINT ( 'NONE',  ( 0.000000000000000000, 0.000000000000000000, 160.0000000000000000 ) ) ;
#110 = AXIS2_PLACEMENT_3D ( 'NONE', #24, #123, #75 ) ;
#111 = CARTESIAN_POINT ( 'NONE',  ( -4.000000000000000000, 0.000000000000000000, 3.000000000000000000 ) ) ;
#112 = CIRCLE ( 'NONE', #17, 2.000000000000000000 ) ;
#113 = PERSON_AND_ORGANIZATION ( #105, #205 ) ;
#114 = DIRECTION ( 'NONE',  ( 1.000000000000000000, 0.000000000000000000, 0.000000000000000000 ) ) ;
#115 = DATE_TIME_ROLE ( 'creation_date' ) ;
#116 = PERSON_AND_ORGANIZATION ( #105, #205 ) ;
#117 = EDGE_LOOP ( 'NONE', ( #248, #144 ) ) ;
#118 = AXIS2_PLACEMENT_3D ( 'NONE', #178, #56, #142 ) ;
#119 = ORIENTED_EDGE ( 'NONE', *, *, #58, .T. ) ;
#120 = ORIENTED_EDGE ( 'NONE', *, *, #90, .T. ) ;
#121 = FACE_OUTER_BOUND ( 'NONE', #117, .T. ) ;
#122 = PRODUCT_DEFINITION_FORMATION_WITH_SPECIFIED_SOURCE ( 'LIBOVOLNÝ', '', #4, .NOT_KNOWN. ) ;
#123 = DIRECTION ( 'NONE',  ( 0.000000000000000000, 0.000000000000000000, 1.000000000000000000 ) ) ;
#124 = DIRECTION ( 'NONE',  ( 0.000000000000000000, 0.000000000000000000, 1.000000000000000000 ) ) ;
#125 = CARTESIAN_POINT ( 'NONE',  ( 4.000000000000000000, 4.898587196589412829E-16, 3.000000000000000000 ) ) ;
#126 = CIRCLE ( 'NONE', #179, 2.000000000000000000 ) ;
#127 = CARTESIAN_POINT ( 'NONE',  ( 0.000000000000000000, 0.000000000000000000, 160.0000000000000000 ) ) ;
#128 = FACE_OUTER_BOUND ( 'NONE', #253, .T. ) ;
#129 = DIRECTION ( 'NONE',  ( -1.000000000000000000, 0.000000000000000000, 0.000000000000000000 ) ) ;
#130 = EDGE_CURVE ( 'NONE', #1, #176, #206, .T. ) ;
#131 = VECTOR ( 'NONE', #64, 1000.000000000000000 ) ;
#132 = PERSON_AND_ORGANIZATION_ROLE ( 'classification_officer' ) ;
#133 = CC_DESIGN_PERSON_AND_ORGANIZATION_ASSIGNMENT ( #113, #132, ( #51 ) ) ;
#134 = ORIENTED_EDGE ( 'NONE', *, *, #201, .F. ) ;
#135 = COORDINATED_UNIVERSAL_TIME_OFFSET ( 1, 0, .AHEAD. ) ;
#136 = VERTEX_POINT ( 'NONE', #83 ) ;
#137 = APPROVAL_STATUS ( 'not_yet_approved' ) ;
#138 = APPROVAL_DATE_TIME ( #31, #107 ) ;
#139 = EDGE_CURVE ( 'NONE', #48, #251, #204, .T. ) ;
#140 = EDGE_LOOP ( 'NONE', ( #189, #20 ) ) ;
#141 = LINE ( 'NONE', #220, #80 ) ;
#142 = DIRECTION ( 'NONE',  ( 1.000000000000000000, 0.000000000000000000, 0.000000000000000000 ) ) ;
#143 = CIRCLE ( 'NONE', #238, 4.000000000000000000 ) ;
#144 = ORIENTED_EDGE ( 'NONE', *, *, #90, .F. ) ;
#145 = CARTESIAN_POINT ( 'NONE',  ( 2.000000000000000000, 2.449293598294706414E-16, 160.0000000000000000 ) ) ;
#146 = FACE_OUTER_BOUND ( 'NONE', #77, .T. ) ;
#147 = DIRECTION ( 'NONE',  ( -0.000000000000000000, -0.000000000000000000, -1.000000000000000000 ) ) ;
#148 = DIRECTION ( 'NONE',  ( -1.000000000000000000, 0.000000000000000000, 0.000000000000000000 ) ) ;
#149 = CARTESIAN_POINT ( 'NONE',  ( 0.000000000000000000, 0.000000000000000000, 3.000000000000000000 ) ) ;
#150 = COORDINATED_UNIVERSAL_TIME_OFFSET ( 1, 0, .AHEAD. ) ;
#151 = CC_DESIGN_PERSON_AND_ORGANIZATION_ASSIGNMENT ( #230, #38, ( #223 ) ) ;
#152 = DIRECTION ( 'NONE',  ( 0.000000000000000000, 0.000000000000000000, 1.000000000000000000 ) ) ;
#153 = ORIENTED_EDGE ( 'NONE', *, *, #55, .F. ) ;
#154 =( NAMED_UNIT ( * ) SI_UNIT ( $, .STERADIAN. ) SOLID_ANGLE_UNIT ( ) );
#155 = CC_DESIGN_SECURITY_CLASSIFICATION ( #51, ( #122 ) ) ;
#156 = EDGE_CURVE ( 'NONE', #251, #48, #126, .T. ) ;
#157 = PLANE ( 'NONE',  #110 ) ;
#158 = DIRECTION ( 'NONE',  ( -0.000000000000000000, -0.000000000000000000, -1.000000000000000000 ) ) ;
#159 = AXIS2_PLACEMENT_3D ( 'NONE', #109, #8, #86 ) ;
#160 = EDGE_LOOP ( 'NONE', ( #153, #74, #224, #91 ) ) ;
#161 = DIRECTION ( 'NONE',  ( 0.000000000000000000, 0.000000000000000000, 1.000000000000000000 ) ) ;
#162 = DIRECTION ( 'NONE',  ( 0.000000000000000000, 0.000000000000000000, 1.000000000000000000 ) ) ;
#163 = DIRECTION ( 'NONE',  ( -1.000000000000000000, 0.000000000000000000, 0.000000000000000000 ) ) ;
#164 = LOCAL_TIME ( 13, 39, 40.00000000000000000, #214 ) ;
#165 = CARTESIAN_POINT ( 'NONE',  ( 2.000000000000000000, 2.449293598294706414E-16, 3.000000000000000000 ) ) ;
#166 = CYLINDRICAL_SURFACE ( 'NONE', #54, 2.000000000000000000 ) ;
#167 = PERSON_AND_ORGANIZATION_ROLE ( 'design_owner' ) ;
#168 = SHAPE_DEFINITION_REPRESENTATION ( #96, #212 ) ;
#169 = AXIS2_PLACEMENT_3D ( 'NONE', #149, #162, #34 ) ;
#170 = AXIS2_PLACEMENT_3D ( 'NONE', #12, #124, #42 ) ;
#171 = LOCAL_TIME ( 13, 39, 40.00000000000000000, #37 ) ;
#172 = DESIGN_CONTEXT ( 'detailed design', #239, 'design' ) ;
#173 = APPROVAL_DATE_TIME ( #247, #193 ) ;
#174 = PERSON_AND_ORGANIZATION ( #105, #205 ) ;
#175 = CC_DESIGN_PERSON_AND_ORGANIZATION_ASSIGNMENT ( #174, #47, ( #122 ) ) ;
#176 = VERTEX_POINT ( 'NONE', #60 ) ;
#177 = ADVANCED_FACE ( 'NONE', ( #146 ), #228, .T. ) ;
#178 = CARTESIAN_POINT ( 'NONE',  ( 0.000000000000000000, 0.000000000000000000, 3.000000000000000000 ) ) ;
#179 = AXIS2_PLACEMENT_3D ( 'NONE', #241, #242, #202 ) ;
#180 = ORIENTED_EDGE ( 'NONE', *, *, #11, .T. ) ;
#181 = DIRECTION ( 'NONE',  ( 0.000000000000000000, 0.000000000000000000, 1.000000000000000000 ) ) ;
#182 = APPROVAL_PERSON_ORGANIZATION ( #67, #218, #211 ) ;
#183 = DIRECTION ( 'NONE',  ( 0.000000000000000000, 0.000000000000000000, 1.000000000000000000 ) ) ;
#184 = DIRECTION ( 'NONE',  ( 0.000000000000000000, 0.000000000000000000, 1.000000000000000000 ) ) ;
#185 = DIRECTION ( 'NONE',  ( 1.000000000000000000, 0.000000000000000000, -0.000000000000000000 ) ) ;
#186 = VECTOR ( 'NONE', #30, 1000.000000000000000 ) ;
#187 = FACE_OUTER_BOUND ( 'NONE', #231, .T. ) ;
#188 = PERSON_AND_ORGANIZATION ( #105, #205 ) ;
#189 = ORIENTED_EDGE ( 'NONE', *, *, #139, .F. ) ;
#190 = APPROVAL_DATE_TIME ( #70, #218 ) ;
#191 = UNCERTAINTY_MEASURE_WITH_UNIT (LENGTH_MEASURE( 1.000000000000000082E-05 ), #213, 'distance_accuracy_value', 'NONE');
#192 = VERTEX_POINT ( 'NONE', #145 ) ;
#193 = APPROVAL ( #65, 'NEURÈENÝ' ) ;
#194 = APPLICATION_PROTOCOL_DEFINITION ( 'international standard', 'config_control_design', 1994, #21 ) ;
#195 =( GEOMETRIC_REPRESENTATION_CONTEXT ( 3 ) GLOBAL_UNCERTAINTY_ASSIGNED_CONTEXT ( ( #191 ) ) GLOBAL_UNIT_ASSIGNED_CONTEXT ( ( #213, #73, #154 ) ) REPRESENTATION_CONTEXT ( 'NONE', 'WORKASPACE' ) );
#196 = EDGE_CURVE ( 'NONE', #71, #192, #112, .T. ) ;
#197 = DIRECTION ( 'NONE',  ( 0.000000000000000000, 0.000000000000000000, 1.000000000000000000 ) ) ;
#198 = DIRECTION ( 'NONE',  ( -1.000000000000000000, 0.000000000000000000, 0.000000000000000000 ) ) ;
#199 = LOCAL_TIME ( 13, 39, 40.00000000000000000, #135 ) ;
#200 = EDGE_LOOP ( 'NONE', ( #39, #98, #120, #25 ) ) ;
#201 = EDGE_CURVE ( 'NONE', #1, #136, #243, .T. ) ;
#202 = DIRECTION ( 'NONE',  ( 1.000000000000000000, 0.000000000000000000, 0.000000000000000000 ) ) ;
#203 = CARTESIAN_POINT ( 'NONE',  ( -2.000000000000000000, 0.000000000000000000, 160.0000000000000000 ) ) ;
#204 = CIRCLE ( 'NONE', #169, 2.000000000000000000 ) ;
#205 = ORGANIZATION ( 'NEURÈENÝ', 'NEURÈENÝ', '' ) ;
#206 = LINE ( 'NONE', #111, #131 ) ;
#207 = ADVANCED_FACE ( 'NONE', ( #82, #128 ), #59, .T. ) ;
#208 = CALENDAR_DATE ( 2023, 12, 2 ) ;
#209 = CARTESIAN_POINT ( 'NONE',  ( 0.000000000000000000, 0.000000000000000000, 3.000000000000000000 ) ) ;
#210 = DIRECTION ( 'NONE',  ( 1.000000000000000000, 0.000000000000000000, 0.000000000000000000 ) ) ;
#211 = APPROVAL_ROLE ( '' ) ;
#212 = ADVANCED_BREP_SHAPE_REPRESENTATION ( 'f4d9', ( #69, #29 ), #195 ) ;
#213 =( LENGTH_UNIT ( ) NAMED_UNIT ( * ) SI_UNIT ( .MILLI., .METRE. ) );
#214 = COORDINATED_UNIVERSAL_TIME_OFFSET ( 1, 0, .AHEAD. ) ;
#215 = VECTOR ( 'NONE', #229, 1000.000000000000000 ) ;
#216 = CALENDAR_DATE ( 2023, 12, 2 ) ;
#217 = ORIENTED_EDGE ( 'NONE', *, *, #255, .T. ) ;
#218 = APPROVAL ( #249, 'NEURÈENÝ' ) ;
#219 = ORIENTED_EDGE ( 'NONE', *, *, #130, .T. ) ;
#220 = CARTESIAN_POINT ( 'NONE',  ( 2.000000000000000000, 2.449293598294706414E-16, 160.0000000000000000 ) ) ;
#221 = ORIENTED_EDGE ( 'NONE', *, *, #61, .F. ) ;
#222 = CARTESIAN_POINT ( 'NONE',  ( -4.000000000000000000, 0.000000000000000000, 3.000000000000000000 ) ) ;
#223 = PRODUCT_DEFINITION ( 'NEZNÁMÝ', '', #122, #172 ) ;
#224 = ORIENTED_EDGE ( 'NONE', *, *, #156, .T. ) ;
#225 = PRODUCT_RELATED_PRODUCT_CATEGORY ( 'detail', '', ( #4 ) ) ;
#226 = CARTESIAN_POINT ( 'NONE',  ( 0.000000000000000000, 0.000000000000000000, 160.0000000000000000 ) ) ;
#227 = AXIS2_PLACEMENT_3D ( 'NONE', #45, #184, #7 ) ;
#228 = CYLINDRICAL_SURFACE ( 'NONE', #101, 2.000000000000000000 ) ;
#229 = DIRECTION ( 'NONE',  ( -0.000000000000000000, -0.000000000000000000, -1.000000000000000000 ) ) ;
#230 = PERSON_AND_ORGANIZATION ( #105, #205 ) ;
#231 = EDGE_LOOP ( 'NONE', ( #234, #104 ) ) ;
#232 = LOCAL_TIME ( 13, 39, 40.00000000000000000, #89 ) ;
#233 = PERSON_AND_ORGANIZATION_ROLE ( 'creator' ) ;
#234 = ORIENTED_EDGE ( 'NONE', *, *, #196, .T. ) ;
#235 = FACE_OUTER_BOUND ( 'NONE', #99, .T. ) ;
#236 = CARTESIAN_POINT ( 'NONE',  ( -2.000000000000000000, 0.000000000000000000, 3.000000000000000000 ) ) ;
#237 = CC_DESIGN_PERSON_AND_ORGANIZATION_ASSIGNMENT ( #116, #167, ( #4 ) ) ;
#238 = AXIS2_PLACEMENT_3D ( 'NONE', #88, #183, #210 ) ;
#239 = APPLICATION_CONTEXT ( 'configuration controlled 3d designs of mechanical parts and assemblies' ) ;
#240 = ADVANCED_FACE ( 'NONE', ( #187 ), #32, .T. ) ;
#241 = CARTESIAN_POINT ( 'NONE',  ( 0.000000000000000000, 0.000000000000000000, 3.000000000000000000 ) ) ;
#242 = DIRECTION ( 'NONE',  ( 0.000000000000000000, 0.000000000000000000, 1.000000000000000000 ) ) ;
#243 = CIRCLE ( 'NONE', #227, 4.000000000000000000 ) ;
#244 = CIRCLE ( 'NONE', #170, 4.000000000000000000 ) ;
#245 = LINE ( 'NONE', #63, #215 ) ;
#246 = DIRECTION ( 'NONE',  ( -0.000000000000000000, -0.000000000000000000, -1.000000000000000000 ) ) ;
#247 = DATE_AND_TIME ( #97, #164 ) ;
#248 = ORIENTED_EDGE ( 'NONE', *, *, #58, .F. ) ;
#249 = APPROVAL_STATUS ( 'not_yet_approved' ) ;
#250 = DATE_AND_TIME ( #216, #199 ) ;
#251 = VERTEX_POINT ( 'NONE', #165 ) ;
#252 = LOCAL_TIME ( 13, 39, 40.00000000000000000, #150 ) ;
#253 = EDGE_LOOP ( 'NONE', ( #68, #180 ) ) ;
#254 = ORIENTED_EDGE ( 'NONE', *, *, #139, .T. ) ;
#255 = EDGE_CURVE ( 'NONE', #71, #48, #245, .T. ) ;
ENDSEC;
END-ISO-10303-21;
