ISO-10303-21;
HEADER;
FILE_DESCRIPTION (( 'STEP AP203' ),
    '1' );
FILE_NAME ('0df1.STEP',
    '2022-07-07T10:08:32',
    ( '' ),
    ( '' ),
    'SwSTEP 2.0',
    'SolidWorks 2019',
    '' );
FILE_SCHEMA (( 'CONFIG_CONTROL_DESIGN' ));
ENDSEC;

DATA;
#1 = CARTESIAN_POINT ( 'NONE',  ( 0.000000000000000000, 0.000000000000000000, 5.199999999999982414 ) ) ;
#2 = CARTESIAN_POINT ( 'NONE',  ( 0.000000000000000000, 0.000000000000000000, 635.0000000000000000 ) ) ;
#3 = ADVANCED_FACE ( 'NONE', ( #87 ), #212, .T. ) ;
#4 = DIRECTION ( 'NONE',  ( -0.000000000000000000, -0.000000000000000000, -1.000000000000000000 ) ) ;
#5 = DIRECTION ( 'NONE',  ( -1.000000000000000000, 0.000000000000000000, 0.000000000000000000 ) ) ;
#6 = LINE ( 'NONE', #272, #128 ) ;
#7 = DIRECTION ( 'NONE',  ( 0.000000000000000000, 0.000000000000000000, 1.000000000000000000 ) ) ;
#8 = VERTEX_POINT ( 'NONE', #142 ) ;
#9 = DIRECTION ( 'NONE',  ( -0.000000000000000000, -0.000000000000000000, -1.000000000000000000 ) ) ;
#10 = VERTEX_POINT ( 'NONE', #159 ) ;
#11 = CLOSED_SHELL ( 'NONE', ( #38, #248, #41, #3, #276, #30, #102, #147, #224 ) ) ;
#12 = APPROVAL_DATE_TIME ( #114, #63 ) ;
#13 = ORIENTED_EDGE ( 'NONE', *, *, #133, .T. ) ;
#14 = CC_DESIGN_APPROVAL ( #104, ( #139 ) ) ;
#15 = CIRCLE ( 'NONE', #166, 3.250000000000000444 ) ;
#16 = ORIENTED_EDGE ( 'NONE', *, *, #221, .F. ) ;
#17 = DIRECTION ( 'NONE',  ( 1.000000000000000000, 0.000000000000000000, -0.000000000000000000 ) ) ;
#18 = DIRECTION ( 'NONE',  ( -0.000000000000000000, -0.000000000000000000, -1.000000000000000000 ) ) ;
#19 = AXIS2_PLACEMENT_3D ( 'NONE', #120, #213, #241 ) ;
#20 = CARTESIAN_POINT ( 'NONE',  ( 0.000000000000000000, 0.000000000000000000, 5.000000000000000000 ) ) ;
#21 = ADVANCED_BREP_SHAPE_REPRESENTATION ( '0df1', ( #109, #249 ), #264 ) ;
#22 = CARTESIAN_POINT ( 'NONE',  ( -3.450000000000000178, 4.225031457058368824E-16, 5.199999999999982414 ) ) ;
#23 = DIRECTION ( 'NONE',  ( 0.000000000000000000, 0.000000000000000000, 1.000000000000000000 ) ) ;
#24 = AXIS2_PLACEMENT_3D ( 'NONE', #70, #172, #267 ) ;
#25 = DIRECTION ( 'NONE',  ( 1.000000000000000000, 0.000000000000000000, -0.000000000000000000 ) ) ;
#26 = CARTESIAN_POINT ( 'NONE',  ( 6.000000000000000888, 7.347880794884120722E-16, 5.000000000000000000 ) ) ;
#27 = CALENDAR_DATE ( 2022, 7, 7 ) ;
#28 = DIRECTION ( 'NONE',  ( -0.000000000000000000, -0.000000000000000000, -1.000000000000000000 ) ) ;
#29 =( LENGTH_UNIT ( ) NAMED_UNIT ( * ) SI_UNIT ( .MILLI., .METRE. ) );
#30 = ADVANCED_FACE ( 'NONE', ( #283 ), #237, .F. ) ;
#31 = VERTEX_POINT ( 'NONE', #110 ) ;
#32 = ORIENTED_EDGE ( 'NONE', *, *, #234, .F. ) ;
#33 = PERSON_AND_ORGANIZATION_ROLE ( 'classification_officer' ) ;
#34 = ORIENTED_EDGE ( 'NONE', *, *, #82, .T. ) ;
#35 = LOCAL_TIME ( 12, 8, 32.00000000000000000, #252 ) ;
#36 = DATE_AND_TIME ( #300, #84 ) ;
#37 = ORIENTED_EDGE ( 'NONE', *, *, #91, .F. ) ;
#38 = ADVANCED_FACE ( 'NONE', ( #81 ), #157, .F. ) ;
#39 = ORIENTED_EDGE ( 'NONE', *, *, #258, .T. ) ;
#40 = CARTESIAN_POINT ( 'NONE',  ( 6.000000000000000888, 7.347880794884120722E-16, 5.000000000000000000 ) ) ;
#41 = ADVANCED_FACE ( 'NONE', ( #125 ), #173, .T. ) ;
#42 = DIRECTION ( 'NONE',  ( 1.000000000000000000, 0.000000000000000000, 0.000000000000000000 ) ) ;
#43 = CARTESIAN_POINT ( 'NONE',  ( -3.450000000000000178, 4.225031457058368824E-16, 4.999999999999991118 ) ) ;
#44 = DIRECTION ( 'NONE',  ( 0.000000000000000000, 0.000000000000000000, 1.000000000000000000 ) ) ;
#45 = CIRCLE ( 'NONE', #226, 0.1999999999999996503 ) ;
#46 = CARTESIAN_POINT ( 'NONE',  ( -6.000000000000000888, 0.000000000000000000, 5.000000000000000000 ) ) ;
#47 = PERSON_AND_ORGANIZATION ( #74, #95 ) ;
#48 = AXIS2_PLACEMENT_3D ( 'NONE', #131, #105, #274 ) ;
#49 = FACE_BOUND ( 'NONE', #136, .T. ) ;
#50 = EDGE_CURVE ( 'NONE', #211, #255, #117, .T. ) ;
#51 = AXIS2_PLACEMENT_3D ( 'NONE', #218, #174, #94 ) ;
#52 = ORIENTED_EDGE ( 'NONE', *, *, #234, .T. ) ;
#53 = DIRECTION ( 'NONE',  ( 1.000000000000000000, 0.000000000000000000, 0.000000000000000000 ) ) ;
#54 = PERSON_AND_ORGANIZATION ( #74, #95 ) ;
#55 = ORIENTED_EDGE ( 'NONE', *, *, #50, .T. ) ;
#56 = DATE_AND_TIME ( #235, #35 ) ;
#57 = ORIENTED_EDGE ( 'NONE', *, *, #244, .F. ) ;
#58 = COORDINATED_UNIVERSAL_TIME_OFFSET ( 1, 0, .AHEAD. ) ;
#59 = EDGE_LOOP ( 'NONE', ( #229, #207, #135, #165 ) ) ;
#60 = AXIS2_PLACEMENT_3D ( 'NONE', #263, #97, #170 ) ;
#61 = APPROVAL_DATE_TIME ( #36, #104 ) ;
#62 = ORIENTED_EDGE ( 'NONE', *, *, #258, .F. ) ;
#63 = APPROVAL ( #85, 'NEURÈENÝ' ) ;
#64 = ORIENTED_EDGE ( 'NONE', *, *, #280, .F. ) ;
#65 = CARTESIAN_POINT ( 'NONE',  ( -6.000000000000000888, 0.000000000000000000, 0.000000000000000000 ) ) ;
#66 = CARTESIAN_POINT ( 'NONE',  ( 0.000000000000000000, 0.000000000000000000, 0.000000000000000000 ) ) ;
#67 = APPROVAL_PERSON_ORGANIZATION ( #140, #104, #183 ) ;
#68 = VECTOR ( 'NONE', #4, 1000.000000000000000 ) ;
#69 = CC_DESIGN_PERSON_AND_ORGANIZATION_ASSIGNMENT ( #186, #256, ( #178 ) ) ;
#70 = CARTESIAN_POINT ( 'NONE',  ( 0.000000000000000000, 0.000000000000000000, 5.199999999999982414 ) ) ;
#71 = DIRECTION ( 'NONE',  ( 1.224646799147353207E-16, 1.000000000000000000, -0.000000000000000000 ) ) ;
#72 = DATE_AND_TIME ( #293, #217 ) ;
#73 = DESIGN_CONTEXT ( 'detailed design', #182, 'design' ) ;
#74 = PERSON ( 'NEURÈENÝ', 'NEURÈENÝ', 'NEURÈENÝ', ('NEURÈENÝ'), ('NEURÈENÝ'), ('NEURÈENÝ') ) ;
#75 = PERSON_AND_ORGANIZATION_ROLE ( 'design_owner' ) ;
#76 = AXIS2_PLACEMENT_3D ( 'NONE', #141, #111, #17 ) ;
#77 = APPLICATION_PROTOCOL_DEFINITION ( 'international standard', 'config_control_design', 1994, #98 ) ;
#78 = CIRCLE ( 'NONE', #153, 6.000000000000000888 ) ;
#79 = PERSON_AND_ORGANIZATION ( #74, #95 ) ;
#80 = PERSON_AND_ORGANIZATION ( #74, #95 ) ;
#81 = FACE_OUTER_BOUND ( 'NONE', #59, .T. ) ;
#82 = EDGE_CURVE ( 'NONE', #228, #190, #119, .T. ) ;
#83 = CARTESIAN_POINT ( 'NONE',  ( 0.000000000000000000, 0.000000000000000000, 5.000000000000000000 ) ) ;
#84 = LOCAL_TIME ( 12, 8, 32.00000000000000000, #231 ) ;
#85 = APPROVAL_STATUS ( 'not_yet_approved' ) ;
#86 = DIRECTION ( 'NONE',  ( -0.000000000000000000, -0.000000000000000000, -1.000000000000000000 ) ) ;
#87 = FACE_OUTER_BOUND ( 'NONE', #115, .T. ) ;
#88 = APPROVAL_STATUS ( 'not_yet_approved' ) ;
#89 = EDGE_LOOP ( 'NONE', ( #37, #301, #184, #64 ) ) ;
#90 = DIRECTION ( 'NONE',  ( 0.000000000000000000, 0.000000000000000000, -1.000000000000000000 ) ) ;
#91 = EDGE_CURVE ( 'NONE', #211, #208, #93, .T. ) ;
#92 = DIRECTION ( 'NONE',  ( 0.000000000000000000, 0.000000000000000000, 1.000000000000000000 ) ) ;
#93 = CIRCLE ( 'NONE', #106, 0.2000000000000000944 ) ;
#94 = DIRECTION ( 'NONE',  ( 1.000000000000000000, 0.000000000000000000, 0.000000000000000000 ) ) ;
#95 = ORGANIZATION ( 'NEURÈENÝ', 'NEURÈENÝ', '' ) ;
#96 = CIRCLE ( 'NONE', #51, 6.000000000000000888 ) ;
#97 = DIRECTION ( 'NONE',  ( 0.000000000000000000, 0.000000000000000000, 1.000000000000000000 ) ) ;
#98 = APPLICATION_CONTEXT ( 'configuration controlled 3d designs of mechanical parts and assemblies' ) ;
#99 = DIRECTION ( 'NONE',  ( 0.000000000000000000, 0.000000000000000000, 1.000000000000000000 ) ) ;
#100 = APPROVAL_STATUS ( 'not_yet_approved' ) ;
#101 = DIRECTION ( 'NONE',  ( -0.000000000000000000, -0.000000000000000000, -1.000000000000000000 ) ) ;
#102 = ADVANCED_FACE ( 'NONE', ( #289 ), #145, .T. ) ;
#103 = CARTESIAN_POINT ( 'NONE',  ( 0.000000000000000000, 0.000000000000000000, 0.000000000000000000 ) ) ;
#104 = APPROVAL ( #88, 'NEURÈENÝ' ) ;
#105 = DIRECTION ( 'NONE',  ( -0.000000000000000000, -0.000000000000000000, -1.000000000000000000 ) ) ;
#106 = AXIS2_PLACEMENT_3D ( 'NONE', #22, #71, #286 ) ;
#107 = CIRCLE ( 'NONE', #297, 3.450000000000000178 ) ;
#108 = FACE_OUTER_BOUND ( 'NONE', #160, .T. ) ;
#109 = MANIFOLD_SOLID_BREP ( 'Zaoblit1', #11 ) ;
#110 = CARTESIAN_POINT ( 'NONE',  ( 3.250000000000000444, 3.980102097228898231E-16, 635.0000000000000000 ) ) ;
#111 = DIRECTION ( 'NONE',  ( 0.000000000000000000, 0.000000000000000000, 1.000000000000000000 ) ) ;
#112 = CIRCLE ( 'NONE', #247, 3.250000000000000444 ) ;
#113 = EDGE_LOOP ( 'NONE', ( #303, #285 ) ) ;
#114 = DATE_AND_TIME ( #156, #259 ) ;
#115 = EDGE_LOOP ( 'NONE', ( #279, #32, #34, #162 ) ) ;
#116 = ORIENTED_EDGE ( 'NONE', *, *, #270, .F. ) ;
#117 = CIRCLE ( 'NONE', #19, 3.250000000000000444 ) ;
#118 = DIRECTION ( 'NONE',  ( -1.000000000000000000, 0.000000000000000000, 0.000000000000000000 ) ) ;
#119 = LINE ( 'NONE', #46, #230 ) ;
#120 = CARTESIAN_POINT ( 'NONE',  ( 0.000000000000000000, 0.000000000000000000, 5.199999999999982414 ) ) ;
#121 = CIRCLE ( 'NONE', #163, 6.000000000000000888 ) ;
#122 = PLANE ( 'NONE',  #148 ) ;
#123 = AXIS2_PLACEMENT_3D ( 'NONE', #199, #44, #144 ) ;
#124 = CC_DESIGN_DATE_AND_TIME_ASSIGNMENT ( #281, #254, ( #201 ) ) ;
#125 = FACE_OUTER_BOUND ( 'NONE', #262, .T. ) ;
#126 = DIRECTION ( 'NONE',  ( 0.000000000000000000, 0.000000000000000000, 1.000000000000000000 ) ) ;
#127 = CC_DESIGN_PERSON_AND_ORGANIZATION_ASSIGNMENT ( #188, #134, ( #178 ) ) ;
#128 = VECTOR ( 'NONE', #101, 1000.000000000000000 ) ;
#129 =( NAMED_UNIT ( * ) SI_UNIT ( $, .STERADIAN. ) SOLID_ANGLE_UNIT ( ) );
#130 = PRODUCT_DEFINITION_SHAPE ( 'NONE', 'NONE',  #201 ) ;
#131 = CARTESIAN_POINT ( 'NONE',  ( 0.000000000000000000, 0.000000000000000000, 5.000000000000000000 ) ) ;
#132 =( NAMED_UNIT ( * ) PLANE_ANGLE_UNIT ( ) SI_UNIT ( $, .RADIAN. ) );
#133 = EDGE_CURVE ( 'NONE', #302, #228, #121, .T. ) ;
#134 = PERSON_AND_ORGANIZATION_ROLE ( 'creator' ) ;
#135 = ORIENTED_EDGE ( 'NONE', *, *, #307, .F. ) ;
#136 = EDGE_LOOP ( 'NONE', ( #167, #138 ) ) ;
#137 = DATE_TIME_ROLE ( 'classification_date' ) ;
#138 = ORIENTED_EDGE ( 'NONE', *, *, #280, .T. ) ;
#139 = SECURITY_CLASSIFICATION ( '', '', #158 ) ;
#140 = PERSON_AND_ORGANIZATION ( #74, #95 ) ;
#141 = CARTESIAN_POINT ( 'NONE',  ( 0.000000000000000000, 0.000000000000000000, 0.000000000000000000 ) ) ;
#142 = CARTESIAN_POINT ( 'NONE',  ( 3.450000000000000178, 0.000000000000000000, 4.999999999999991118 ) ) ;
#143 = CC_DESIGN_DATE_AND_TIME_ASSIGNMENT ( #56, #137, ( #139 ) ) ;
#144 = DIRECTION ( 'NONE',  ( 1.000000000000000000, 0.000000000000000000, 0.000000000000000000 ) ) ;
#145 = CYLINDRICAL_SURFACE ( 'NONE', #305, 3.250000000000000444 ) ;
#146 = DIRECTION ( 'NONE',  ( 1.000000000000000000, 0.000000000000000000, 0.000000000000000000 ) ) ;
#147 = ADVANCED_FACE ( 'NONE', ( #214 ), #122, .T. ) ;
#148 = AXIS2_PLACEMENT_3D ( 'NONE', #150, #99, #25 ) ;
#149 = FACE_OUTER_BOUND ( 'NONE', #89, .T. ) ;
#150 = CARTESIAN_POINT ( 'NONE',  ( 0.000000000000000000, 0.000000000000000000, 635.0000000000000000 ) ) ;
#151 = PERSON_AND_ORGANIZATION_ROLE ( 'creator' ) ;
#152 = AXIS2_PLACEMENT_3D ( 'NONE', #296, #7, #294 ) ;
#153 = AXIS2_PLACEMENT_3D ( 'NONE', #66, #240, #42 ) ;
#154 = DIRECTION ( 'NONE',  ( -0.000000000000000000, -0.000000000000000000, -1.000000000000000000 ) ) ;
#155 = PERSON_AND_ORGANIZATION ( #74, #95 ) ;
#156 = CALENDAR_DATE ( 2022, 7, 7 ) ;
#157 = TOROIDAL_SURFACE ( 'NONE', #60, 3.450000000000000178, 0.2000000000000000111 ) ;
#158 = SECURITY_CLASSIFICATION_LEVEL ( 'unclassified' ) ;
#159 = CARTESIAN_POINT ( 'NONE',  ( -3.250000000000000444, 0.000000000000000000, 635.0000000000000000 ) ) ;
#160 = EDGE_LOOP ( 'NONE', ( #52, #13 ) ) ;
#161 = APPROVAL_ROLE ( '' ) ;
#162 = ORIENTED_EDGE ( 'NONE', *, *, #221, .T. ) ;
#163 = AXIS2_PLACEMENT_3D ( 'NONE', #266, #23, #146 ) ;
#164 = LOCAL_TIME ( 12, 8, 32.00000000000000000, #246 ) ;
#165 = ORIENTED_EDGE ( 'NONE', *, *, #171, .F. ) ;
#166 = AXIS2_PLACEMENT_3D ( 'NONE', #1, #92, #220 ) ;
#167 = ORIENTED_EDGE ( 'NONE', *, *, #307, .T. ) ;
#168 = CC_DESIGN_PERSON_AND_ORGANIZATION_ASSIGNMENT ( #155, #75, ( #275 ) ) ;
#169 = CARTESIAN_POINT ( 'NONE',  ( 6.000000000000000888, 7.347880794884120722E-16, 0.000000000000000000 ) ) ;
#170 = DIRECTION ( 'NONE',  ( 1.000000000000000000, 0.000000000000000000, 0.000000000000000000 ) ) ;
#171 = EDGE_CURVE ( 'NONE', #255, #8, #45, .T. ) ;
#172 = DIRECTION ( 'NONE',  ( 0.000000000000000000, 0.000000000000000000, 1.000000000000000000 ) ) ;
#173 = CYLINDRICAL_SURFACE ( 'NONE', #238, 6.000000000000000888 ) ;
#174 = DIRECTION ( 'NONE',  ( 0.000000000000000000, 0.000000000000000000, 1.000000000000000000 ) ) ;
#175 = APPROVAL_DATE_TIME ( #72, #185 ) ;
#176 = LINE ( 'NONE', #269, #205 ) ;
#177 = CARTESIAN_POINT ( 'NONE',  ( 0.000000000000000000, 0.000000000000000000, 635.0000000000000000 ) ) ;
#178 = PRODUCT_DEFINITION_FORMATION_WITH_SPECIFIED_SOURCE ( 'LIBOVOLNÝ', '', #275, .NOT_KNOWN. ) ;
#179 = DIRECTION ( 'NONE',  ( -1.000000000000000000, 0.000000000000000000, 0.000000000000000000 ) ) ;
#180 = CC_DESIGN_PERSON_AND_ORGANIZATION_ASSIGNMENT ( #47, #151, ( #201 ) ) ;
#181 = APPROVAL_ROLE ( '' ) ;
#182 = APPLICATION_CONTEXT ( 'configuration controlled 3d designs of mechanical parts and assemblies' ) ;
#183 = APPROVAL_ROLE ( '' ) ;
#184 = ORIENTED_EDGE ( 'NONE', *, *, #171, .T. ) ;
#185 = APPROVAL ( #100, 'NEURÈENÝ' ) ;
#186 = PERSON_AND_ORGANIZATION ( #74, #95 ) ;
#187 = ORIENTED_EDGE ( 'NONE', *, *, #215, .T. ) ;
#188 = PERSON_AND_ORGANIZATION ( #74, #95 ) ;
#189 = DIRECTION ( 'NONE',  ( -1.000000000000000000, 0.000000000000000000, 0.000000000000000000 ) ) ;
#190 = VERTEX_POINT ( 'NONE', #65 ) ;
#191 = VERTEX_POINT ( 'NONE', #169 ) ;
#192 = EDGE_CURVE ( 'NONE', #191, #190, #96, .T. ) ;
#193 = DIRECTION ( 'NONE',  ( 0.000000000000000000, -1.000000000000000000, 0.000000000000000000 ) ) ;
#194 = CARTESIAN_POINT ( 'NONE',  ( -3.250000000000000444, 0.000000000000000000, 5.199999999999982414 ) ) ;
#195 = AXIS2_PLACEMENT_3D ( 'NONE', #83, #86, #189 ) ;
#196 = AXIS2_PLACEMENT_3D ( 'NONE', #177, #9, #179 ) ;
#197 = CARTESIAN_POINT ( 'NONE',  ( -6.000000000000000888, 0.000000000000000000, 5.000000000000000000 ) ) ;
#198 = APPROVAL_PERSON_ORGANIZATION ( #80, #63, #161 ) ;
#199 = CARTESIAN_POINT ( 'NONE',  ( 0.000000000000000000, 0.000000000000000000, 5.000000000000000000 ) ) ;
#200 = COORDINATED_UNIVERSAL_TIME_OFFSET ( 1, 0, .AHEAD. ) ;
#201 = PRODUCT_DEFINITION ( 'NEZNÁMÝ', '', #178, #73 ) ;
#202 = CARTESIAN_POINT ( 'NONE',  ( 0.000000000000000000, 0.000000000000000000, 5.000000000000000000 ) ) ;
#203 = CARTESIAN_POINT ( 'NONE',  ( 3.250000000000000444, 3.980102097228898231E-16, 5.199999999999982414 ) ) ;
#204 = EDGE_CURVE ( 'NONE', #255, #211, #15, .T. ) ;
#205 = VECTOR ( 'NONE', #154, 1000.000000000000000 ) ;
#206 = DIRECTION ( 'NONE',  ( 1.000000000000000000, 0.000000000000000000, 0.000000000000000000 ) ) ;
#207 = ORIENTED_EDGE ( 'NONE', *, *, #91, .T. ) ;
#208 = VERTEX_POINT ( 'NONE', #43 ) ;
#209 = CC_DESIGN_APPROVAL ( #63, ( #178 ) ) ;
#210 = ORIENTED_EDGE ( 'NONE', *, *, #290, .F. ) ;
#211 = VERTEX_POINT ( 'NONE', #194 ) ;
#212 = CYLINDRICAL_SURFACE ( 'NONE', #195, 6.000000000000000888 ) ;
#213 = DIRECTION ( 'NONE',  ( 0.000000000000000000, 0.000000000000000000, 1.000000000000000000 ) ) ;
#214 = FACE_OUTER_BOUND ( 'NONE', #113, .T. ) ;
#215 = EDGE_CURVE ( 'NONE', #302, #191, #287, .T. ) ;
#216 = DIRECTION ( 'NONE',  ( -0.000000000000000000, -0.000000000000000000, -1.000000000000000000 ) ) ;
#217 = LOCAL_TIME ( 12, 8, 32.00000000000000000, #200 ) ;
#218 = CARTESIAN_POINT ( 'NONE',  ( 0.000000000000000000, 0.000000000000000000, 0.000000000000000000 ) ) ;
#219 = TOROIDAL_SURFACE ( 'NONE', #24, 3.450000000000000178, 0.2000000000000000111 ) ;
#220 = DIRECTION ( 'NONE',  ( 1.000000000000000000, 0.000000000000000000, 0.000000000000000000 ) ) ;
#221 = EDGE_CURVE ( 'NONE', #190, #191, #78, .T. ) ;
#222 = PRODUCT_RELATED_PRODUCT_CATEGORY ( 'detail', '', ( #275 ) ) ;
#223 = UNCERTAINTY_MEASURE_WITH_UNIT (LENGTH_MEASURE( 1.000000000000000082E-05 ), #29, 'distance_accuracy_value', 'NONE');
#224 = ADVANCED_FACE ( 'NONE', ( #149 ), #219, .F. ) ;
#225 = DIRECTION ( 'NONE',  ( 0.000000000000000000, 0.000000000000000000, 1.000000000000000000 ) ) ;
#226 = AXIS2_PLACEMENT_3D ( 'NONE', #306, #193, #90 ) ;
#227 = CC_DESIGN_SECURITY_CLASSIFICATION ( #139, ( #178 ) ) ;
#228 = VERTEX_POINT ( 'NONE', #197 ) ;
#229 = ORIENTED_EDGE ( 'NONE', *, *, #50, .F. ) ;
#230 = VECTOR ( 'NONE', #216, 1000.000000000000000 ) ;
#231 = COORDINATED_UNIVERSAL_TIME_OFFSET ( 1, 0, .AHEAD. ) ;
#232 = AXIS2_PLACEMENT_3D ( 'NONE', #245, #225, #271 ) ;
#233 = ORIENTED_EDGE ( 'NONE', *, *, #192, .T. ) ;
#234 = EDGE_CURVE ( 'NONE', #228, #302, #242, .T. ) ;
#235 = CALENDAR_DATE ( 2022, 7, 7 ) ;
#236 = EDGE_LOOP ( 'NONE', ( #16, #299 ) ) ;
#237 = PLANE ( 'NONE',  #76 ) ;
#238 = AXIS2_PLACEMENT_3D ( 'NONE', #20, #18, #118 ) ;
#239 = FACE_OUTER_BOUND ( 'NONE', #261, .T. ) ;
#240 = DIRECTION ( 'NONE',  ( 0.000000000000000000, 0.000000000000000000, 1.000000000000000000 ) ) ;
#241 = DIRECTION ( 'NONE',  ( 1.000000000000000000, 0.000000000000000000, 0.000000000000000000 ) ) ;
#242 = CIRCLE ( 'NONE', #123, 6.000000000000000888 ) ;
#243 = CARTESIAN_POINT ( 'NONE',  ( 0.000000000000000000, 0.000000000000000000, 635.0000000000000000 ) ) ;
#244 = EDGE_CURVE ( 'NONE', #10, #31, #112, .T. ) ;
#245 = CARTESIAN_POINT ( 'NONE',  ( 0.000000000000000000, 0.000000000000000000, 5.000000000000000000 ) ) ;
#246 = COORDINATED_UNIVERSAL_TIME_OFFSET ( 1, 0, .AHEAD. ) ;
#247 = AXIS2_PLACEMENT_3D ( 'NONE', #243, #291, #292 ) ;
#248 = ADVANCED_FACE ( 'NONE', ( #239 ), #268, .T. ) ;
#249 = AXIS2_PLACEMENT_3D ( 'NONE', #103, #126, #206 ) ;
#250 = PLANE ( 'NONE',  #232 ) ;
#251 = APPLICATION_PROTOCOL_DEFINITION ( 'international standard', 'config_control_design', 1994, #182 ) ;
#252 = COORDINATED_UNIVERSAL_TIME_OFFSET ( 1, 0, .AHEAD. ) ;
#253 = EDGE_LOOP ( 'NONE', ( #116, #57, #39, #55 ) ) ;
#254 = DATE_TIME_ROLE ( 'creation_date' ) ;
#255 = VERTEX_POINT ( 'NONE', #203 ) ;
#256 = PERSON_AND_ORGANIZATION_ROLE ( 'design_supplier' ) ;
#257 = ORIENTED_EDGE ( 'NONE', *, *, #133, .F. ) ;
#258 = EDGE_CURVE ( 'NONE', #10, #211, #6, .T. ) ;
#259 = LOCAL_TIME ( 12, 8, 32.00000000000000000, #58 ) ;
#260 = CC_DESIGN_APPROVAL ( #185, ( #201 ) ) ;
#261 = EDGE_LOOP ( 'NONE', ( #210, #282, #304, #62 ) ) ;
#262 = EDGE_LOOP ( 'NONE', ( #257, #187, #233, #278 ) ) ;
#263 = CARTESIAN_POINT ( 'NONE',  ( 0.000000000000000000, 0.000000000000000000, 5.199999999999982414 ) ) ;
#264 =( GEOMETRIC_REPRESENTATION_CONTEXT ( 3 ) GLOBAL_UNCERTAINTY_ASSIGNED_CONTEXT ( ( #223 ) ) GLOBAL_UNIT_ASSIGNED_CONTEXT ( ( #29, #132, #129 ) ) REPRESENTATION_CONTEXT ( 'NONE', 'WORKASPACE' ) );
#265 = DIRECTION ( 'NONE',  ( -0.000000000000000000, -0.000000000000000000, -1.000000000000000000 ) ) ;
#266 = CARTESIAN_POINT ( 'NONE',  ( 0.000000000000000000, 0.000000000000000000, 5.000000000000000000 ) ) ;
#267 = DIRECTION ( 'NONE',  ( 1.000000000000000000, 0.000000000000000000, 0.000000000000000000 ) ) ;
#268 = CYLINDRICAL_SURFACE ( 'NONE', #196, 3.250000000000000444 ) ;
#269 = CARTESIAN_POINT ( 'NONE',  ( 3.250000000000000444, 3.980102097228898231E-16, 635.0000000000000000 ) ) ;
#270 = EDGE_CURVE ( 'NONE', #31, #255, #176, .T. ) ;
#271 = DIRECTION ( 'NONE',  ( 1.000000000000000000, 0.000000000000000000, -0.000000000000000000 ) ) ;
#272 = CARTESIAN_POINT ( 'NONE',  ( -3.250000000000000444, 0.000000000000000000, 635.0000000000000000 ) ) ;
#273 = CIRCLE ( 'NONE', #48, 3.450000000000000178 ) ;
#274 = DIRECTION ( 'NONE',  ( 1.000000000000000000, 0.000000000000000000, 0.000000000000000000 ) ) ;
#275 = PRODUCT ( '0df1', '0df1', '', ( #295 ) ) ;
#276 = ADVANCED_FACE ( 'NONE', ( #49, #108 ), #250, .T. ) ;
#277 = CC_DESIGN_PERSON_AND_ORGANIZATION_ASSIGNMENT ( #54, #33, ( #139 ) ) ;
#278 = ORIENTED_EDGE ( 'NONE', *, *, #82, .F. ) ;
#279 = ORIENTED_EDGE ( 'NONE', *, *, #215, .F. ) ;
#280 = EDGE_CURVE ( 'NONE', #208, #8, #107, .T. ) ;
#281 = DATE_AND_TIME ( #27, #164 ) ;
#282 = ORIENTED_EDGE ( 'NONE', *, *, #270, .T. ) ;
#283 = FACE_OUTER_BOUND ( 'NONE', #236, .T. ) ;
#284 = APPROVAL_PERSON_ORGANIZATION ( #79, #185, #181 ) ;
#285 = ORIENTED_EDGE ( 'NONE', *, *, #290, .T. ) ;
#286 = DIRECTION ( 'NONE',  ( -1.000000000000000000, 1.224646799147350742E-16, 0.000000000000000000 ) ) ;
#287 = LINE ( 'NONE', #40, #68 ) ;
#288 = CIRCLE ( 'NONE', #152, 3.250000000000000444 ) ;
#289 = FACE_OUTER_BOUND ( 'NONE', #253, .T. ) ;
#290 = EDGE_CURVE ( 'NONE', #31, #10, #288, .T. ) ;
#291 = DIRECTION ( 'NONE',  ( 0.000000000000000000, 0.000000000000000000, 1.000000000000000000 ) ) ;
#292 = DIRECTION ( 'NONE',  ( 1.000000000000000000, 0.000000000000000000, 0.000000000000000000 ) ) ;
#293 = CALENDAR_DATE ( 2022, 7, 7 ) ;
#294 = DIRECTION ( 'NONE',  ( 1.000000000000000000, 0.000000000000000000, 0.000000000000000000 ) ) ;
#295 = MECHANICAL_CONTEXT ( 'NONE', #98, 'mechanical' ) ;
#296 = CARTESIAN_POINT ( 'NONE',  ( 0.000000000000000000, 0.000000000000000000, 635.0000000000000000 ) ) ;
#297 = AXIS2_PLACEMENT_3D ( 'NONE', #202, #28, #53 ) ;
#298 = SHAPE_DEFINITION_REPRESENTATION ( #130, #21 ) ;
#299 = ORIENTED_EDGE ( 'NONE', *, *, #192, .F. ) ;
#300 = CALENDAR_DATE ( 2022, 7, 7 ) ;
#301 = ORIENTED_EDGE ( 'NONE', *, *, #204, .F. ) ;
#302 = VERTEX_POINT ( 'NONE', #26 ) ;
#303 = ORIENTED_EDGE ( 'NONE', *, *, #244, .T. ) ;
#304 = ORIENTED_EDGE ( 'NONE', *, *, #204, .T. ) ;
#305 = AXIS2_PLACEMENT_3D ( 'NONE', #2, #265, #5 ) ;
#306 = CARTESIAN_POINT ( 'NONE',  ( 3.450000000000000178, 0.000000000000000000, 5.199999999999982414 ) ) ;
#307 = EDGE_CURVE ( 'NONE', #8, #208, #273, .T. ) ;
ENDSEC;
END-ISO-10303-21;
