ISO-10303-21;
HEADER;
FILE_DESCRIPTION (( 'STEP AP203' ),
    '1' );
FILE_NAME ('e5e5.STEP',
    '2022-07-07T10:00:32',
    ( '' ),
    ( '' ),
    'SwSTEP 2.0',
    'SolidWorks 2019',
    '' );
FILE_SCHEMA (( 'CONFIG_CONTROL_DESIGN' ));
ENDSEC;

DATA;
#1 = CC_DESIGN_APPROVAL ( #282, ( #117 ) ) ;
#2 = EDGE_LOOP ( 'NONE', ( #77, #76, #211, #266 ) ) ;
#3 = LINE ( 'NONE', #9, #207 ) ;
#4 = ORIENTED_EDGE ( 'NONE', *, *, #302, .T. ) ;
#5 = CYLINDRICAL_SURFACE ( 'NONE', #56, 7.000000000000000000 ) ;
#6 = EDGE_CURVE ( 'NONE', #119, #166, #168, .T. ) ;
#7 = CARTESIAN_POINT ( 'NONE',  ( 0.000000000000000000, 0.000000000000000000, 505.0000000000000000 ) ) ;
#8 = DIRECTION ( 'NONE',  ( 0.000000000000000000, 0.000000000000000000, 1.000000000000000000 ) ) ;
#9 = CARTESIAN_POINT ( 'NONE',  ( 7.000000000000000000, 8.572527594031473190E-16, 5.000000000000000000 ) ) ;
#10 =( LENGTH_UNIT ( ) NAMED_UNIT ( * ) SI_UNIT ( .MILLI., .METRE. ) );
#11 = DIRECTION ( 'NONE',  ( -0.000000000000000000, -0.000000000000000000, -1.000000000000000000 ) ) ;
#12 = AXIS2_PLACEMENT_3D ( 'NONE', #149, #132, #224 ) ;
#13 = FACE_OUTER_BOUND ( 'NONE', #51, .T. ) ;
#14 = CARTESIAN_POINT ( 'NONE',  ( 7.000000000000000000, 8.572527594031473190E-16, 0.000000000000000000 ) ) ;
#15 = APPROVAL_ROLE ( '' ) ;
#16 = APPROVAL_DATE_TIME ( #47, #183 ) ;
#17 = CC_DESIGN_SECURITY_CLASSIFICATION ( #154, ( #117 ) ) ;
#18 = APPLICATION_PROTOCOL_DEFINITION ( 'international standard', 'config_control_design', 1994, #152 ) ;
#19 = AXIS2_PLACEMENT_3D ( 'NONE', #222, #58, #195 ) ;
#20 = ORIENTED_EDGE ( 'NONE', *, *, #28, .T. ) ;
#21 = VECTOR ( 'NONE', #241, 1000.000000000000000 ) ;
#22 = ORIENTED_EDGE ( 'NONE', *, *, #138, .T. ) ;
#23 = ORIENTED_EDGE ( 'NONE', *, *, #138, .F. ) ;
#24 = PRODUCT_DEFINITION ( 'NEZNÁMÝ', '', #117, #265 ) ;
#25 = DIRECTION ( 'NONE',  ( 0.000000000000000000, 0.000000000000000000, 1.000000000000000000 ) ) ;
#26 = CARTESIAN_POINT ( 'NONE',  ( 4.299999999999998934, 0.000000000000000000, 5.199999999999982414 ) ) ;
#27 = AXIS2_PLACEMENT_3D ( 'NONE', #262, #212, #33 ) ;
#28 = EDGE_CURVE ( 'NONE', #281, #87, #193, .T. ) ;
#29 = DIRECTION ( 'NONE',  ( -1.000000000000000000, 0.000000000000000000, 0.000000000000000000 ) ) ;
#30 = LOCAL_TIME ( 12, 0, 31.00000000000000000, #250 ) ;
#31 = DIRECTION ( 'NONE',  ( -0.000000000000000000, -0.000000000000000000, -1.000000000000000000 ) ) ;
#32 = CARTESIAN_POINT ( 'NONE',  ( 7.000000000000000000, 8.572527594031473190E-16, 5.000000000000000000 ) ) ;
#33 = DIRECTION ( 'NONE',  ( 1.000000000000000000, 0.000000000000000000, 0.000000000000000000 ) ) ;
#34 = DIRECTION ( 'NONE',  ( 1.000000000000000000, 0.000000000000000000, -0.000000000000000000 ) ) ;
#35 = CARTESIAN_POINT ( 'NONE',  ( 0.000000000000000000, 0.000000000000000000, 505.0000000000000000 ) ) ;
#36 = DIRECTION ( 'NONE',  ( -1.000000000000000000, 0.000000000000000000, 0.000000000000000000 ) ) ;
#37 = FACE_OUTER_BOUND ( 'NONE', #171, .T. ) ;
#38 = CC_DESIGN_PERSON_AND_ORGANIZATION_ASSIGNMENT ( #304, #98, ( #154 ) ) ;
#39 = DIRECTION ( 'NONE',  ( 1.000000000000000000, 0.000000000000000000, 0.000000000000000000 ) ) ;
#40 = CALENDAR_DATE ( 2022, 7, 7 ) ;
#41 = CALENDAR_DATE ( 2022, 7, 7 ) ;
#42 = AXIS2_PLACEMENT_3D ( 'NONE', #261, #148, #244 ) ;
#43 = AXIS2_PLACEMENT_3D ( 'NONE', #103, #93, #125 ) ;
#44 = PERSON_AND_ORGANIZATION_ROLE ( 'creator' ) ;
#45 = CC_DESIGN_DATE_AND_TIME_ASSIGNMENT ( #277, #299, ( #154 ) ) ;
#46 = ADVANCED_FACE ( 'NONE', ( #295 ), #60, .T. ) ;
#47 = DATE_AND_TIME ( #256, #112 ) ;
#48 = ORIENTED_EDGE ( 'NONE', *, *, #111, .T. ) ;
#49 = EDGE_LOOP ( 'NONE', ( #194, #75 ) ) ;
#50 = EDGE_CURVE ( 'NONE', #281, #137, #298, .T. ) ;
#51 = EDGE_LOOP ( 'NONE', ( #234, #114, #20, #245 ) ) ;
#52 = EDGE_LOOP ( 'NONE', ( #139, #187, #165, #237 ) ) ;
#53 = PRODUCT ( 'e5e5', 'e5e5', '', ( #205 ) ) ;
#54 = DIRECTION ( 'NONE',  ( 0.000000000000000000, 0.000000000000000000, 1.000000000000000000 ) ) ;
#55 = FACE_BOUND ( 'NONE', #79, .T. ) ;
#56 = AXIS2_PLACEMENT_3D ( 'NONE', #264, #143, #36 ) ;
#57 = DIRECTION ( 'NONE',  ( 0.000000000000000000, -1.000000000000000000, 0.000000000000000000 ) ) ;
#58 = DIRECTION ( 'NONE',  ( 0.000000000000000000, 0.000000000000000000, 1.000000000000000000 ) ) ;
#59 = EDGE_CURVE ( 'NONE', #278, #87, #160, .T. ) ;
#60 = CYLINDRICAL_SURFACE ( 'NONE', #290, 4.099999999999999645 ) ;
#61 = DIRECTION ( 'NONE',  ( -0.000000000000000000, -0.000000000000000000, -1.000000000000000000 ) ) ;
#62 = ORIENTED_EDGE ( 'NONE', *, *, #6, .F. ) ;
#63 = CLOSED_SHELL ( 'NONE', ( #279, #46, #198, #174, #286, #273, #251, #260, #229 ) ) ;
#64 = DIRECTION ( 'NONE',  ( 1.000000000000000000, 0.000000000000000000, 0.000000000000000000 ) ) ;
#65 = CC_DESIGN_APPROVAL ( #200, ( #24 ) ) ;
#66 = PERSON_AND_ORGANIZATION ( #208, #285 ) ;
#67 = PERSON_AND_ORGANIZATION ( #208, #285 ) ;
#68 = CARTESIAN_POINT ( 'NONE',  ( 0.000000000000000000, 0.000000000000000000, 0.000000000000000000 ) ) ;
#69 = AXIS2_PLACEMENT_3D ( 'NONE', #284, #142, #216 ) ;
#70 = PERSON_AND_ORGANIZATION ( #208, #285 ) ;
#71 = APPROVAL_DATE_TIME ( #228, #200 ) ;
#72 = EDGE_LOOP ( 'NONE', ( #23, #48, #238, #141 ) ) ;
#73 = ORIENTED_EDGE ( 'NONE', *, *, #123, .T. ) ;
#74 = APPROVAL_PERSON_ORGANIZATION ( #158, #183, #227 ) ;
#75 = ORIENTED_EDGE ( 'NONE', *, *, #293, .T. ) ;
#76 = ORIENTED_EDGE ( 'NONE', *, *, #307, .T. ) ;
#77 = ORIENTED_EDGE ( 'NONE', *, *, #258, .F. ) ;
#78 = APPROVAL_PERSON_ORGANIZATION ( #136, #200, #15 ) ;
#79 = EDGE_LOOP ( 'NONE', ( #4, #73 ) ) ;
#80 = EDGE_CURVE ( 'NONE', #159, #233, #280, .T. ) ;
#81 = ORIENTED_EDGE ( 'NONE', *, *, #293, .F. ) ;
#82 = UNCERTAINTY_MEASURE_WITH_UNIT (LENGTH_MEASURE( 1.000000000000000082E-05 ), #10, 'distance_accuracy_value', 'NONE');
#83 = FACE_OUTER_BOUND ( 'NONE', #49, .T. ) ;
#84 = DIRECTION ( 'NONE',  ( 1.000000000000000000, 0.000000000000000000, 0.000000000000000000 ) ) ;
#85 = FACE_OUTER_BOUND ( 'NONE', #259, .T. ) ;
#86 = EDGE_CURVE ( 'NONE', #166, #119, #263, .T. ) ;
#87 = VERTEX_POINT ( 'NONE', #128 ) ;
#88 = AXIS2_PLACEMENT_3D ( 'NONE', #243, #127, #105 ) ;
#89 = DIRECTION ( 'NONE',  ( -0.000000000000000000, -0.000000000000000000, -1.000000000000000000 ) ) ;
#90 = VERTEX_POINT ( 'NONE', #218 ) ;
#91 = CARTESIAN_POINT ( 'NONE',  ( 0.000000000000000000, 0.000000000000000000, 0.000000000000000000 ) ) ;
#92 = VECTOR ( 'NONE', #31, 1000.000000000000000 ) ;
#93 = DIRECTION ( 'NONE',  ( 0.000000000000000000, 0.000000000000000000, 1.000000000000000000 ) ) ;
#94 = EDGE_CURVE ( 'NONE', #233, #166, #3, .T. ) ;
#95 = CC_DESIGN_PERSON_AND_ORGANIZATION_ASSIGNMENT ( #70, #44, ( #24 ) ) ;
#96 = APPROVAL_STATUS ( 'not_yet_approved' ) ;
#97 = SHAPE_DEFINITION_REPRESENTATION ( #202, #294 ) ;
#98 = PERSON_AND_ORGANIZATION_ROLE ( 'classification_officer' ) ;
#99 = DIRECTION ( 'NONE',  ( 1.000000000000000000, 0.000000000000000000, 0.000000000000000000 ) ) ;
#100 = CARTESIAN_POINT ( 'NONE',  ( -7.000000000000000000, 0.000000000000000000, 0.000000000000000000 ) ) ;
#101 = CIRCLE ( 'NONE', #12, 4.299999999999998934 ) ;
#102 = DIRECTION ( 'NONE',  ( -1.000000000000000000, 0.000000000000000000, 0.000000000000000000 ) ) ;
#103 = CARTESIAN_POINT ( 'NONE',  ( 0.000000000000000000, 0.000000000000000000, 5.199999999999982414 ) ) ;
#104 = ORIENTED_EDGE ( 'NONE', *, *, #50, .T. ) ;
#105 = DIRECTION ( 'NONE',  ( -1.000000000000000000, 1.224646799147353454E-16, 0.000000000000000000 ) ) ;
#106 = DIRECTION ( 'NONE',  ( 0.000000000000000000, 0.000000000000000000, -1.000000000000000000 ) ) ;
#107 = CARTESIAN_POINT ( 'NONE',  ( 4.099999999999999645, 5.021051876504147385E-16, 505.0000000000000000 ) ) ;
#108 = DIRECTION ( 'NONE',  ( 0.000000000000000000, 0.000000000000000000, 1.000000000000000000 ) ) ;
#109 =( NAMED_UNIT ( * ) PLANE_ANGLE_UNIT ( ) SI_UNIT ( $, .RADIAN. ) );
#110 = PERSON_AND_ORGANIZATION_ROLE ( 'design_supplier' ) ;
#111 = EDGE_CURVE ( 'NONE', #137, #278, #188, .T. ) ;
#112 = LOCAL_TIME ( 12, 0, 31.00000000000000000, #179 ) ;
#113 = DIRECTION ( 'NONE',  ( 0.000000000000000000, 0.000000000000000000, 1.000000000000000000 ) ) ;
#114 = ORIENTED_EDGE ( 'NONE', *, *, #50, .F. ) ;
#115 = SECURITY_CLASSIFICATION_LEVEL ( 'unclassified' ) ;
#116 = CC_DESIGN_PERSON_AND_ORGANIZATION_ASSIGNMENT ( #67, #110, ( #117 ) ) ;
#117 = PRODUCT_DEFINITION_FORMATION_WITH_SPECIFIED_SOURCE ( 'LIBOVOLNÝ', '', #53, .NOT_KNOWN. ) ;
#118 = AXIS2_PLACEMENT_3D ( 'NONE', #196, #145, #39 ) ;
#119 = VERTEX_POINT ( 'NONE', #100 ) ;
#120 = EDGE_LOOP ( 'NONE', ( #62, #206 ) ) ;
#121 = ORIENTED_EDGE ( 'NONE', *, *, #86, .T. ) ;
#122 = CARTESIAN_POINT ( 'NONE',  ( -7.000000000000000000, 0.000000000000000000, 5.000000000000000000 ) ) ;
#123 = EDGE_CURVE ( 'NONE', #90, #163, #192, .T. ) ;
#124 = DIRECTION ( 'NONE',  ( -0.000000000000000000, -0.000000000000000000, -1.000000000000000000 ) ) ;
#125 = DIRECTION ( 'NONE',  ( 1.000000000000000000, 0.000000000000000000, 0.000000000000000000 ) ) ;
#126 = CARTESIAN_POINT ( 'NONE',  ( 0.000000000000000000, 0.000000000000000000, 0.000000000000000000 ) ) ;
#127 = DIRECTION ( 'NONE',  ( 1.224646799147353207E-16, 1.000000000000000000, -0.000000000000000000 ) ) ;
#128 = CARTESIAN_POINT ( 'NONE',  ( -4.099999999999999645, 0.000000000000000000, 5.199999999999982414 ) ) ;
#129 = FACE_OUTER_BOUND ( 'NONE', #52, .T. ) ;
#130 = CIRCLE ( 'NONE', #170, 0.1999999999999996503 ) ;
#131 = CARTESIAN_POINT ( 'NONE',  ( 0.000000000000000000, 0.000000000000000000, 5.000000000000000000 ) ) ;
#132 = DIRECTION ( 'NONE',  ( -0.000000000000000000, -0.000000000000000000, -1.000000000000000000 ) ) ;
#133 = APPROVAL_DATE_TIME ( #303, #282 ) ;
#134 = CALENDAR_DATE ( 2022, 7, 7 ) ;
#135 = AXIS2_PLACEMENT_3D ( 'NONE', #177, #8, #240 ) ;
#136 = PERSON_AND_ORGANIZATION ( #208, #285 ) ;
#137 = VERTEX_POINT ( 'NONE', #271 ) ;
#138 = EDGE_CURVE ( 'NONE', #137, #281, #235, .T. ) ;
#139 = ORIENTED_EDGE ( 'NONE', *, *, #307, .F. ) ;
#140 = CIRCLE ( 'NONE', #185, 4.099999999999999645 ) ;
#141 = ORIENTED_EDGE ( 'NONE', *, *, #28, .F. ) ;
#142 = DIRECTION ( 'NONE',  ( -0.000000000000000000, -0.000000000000000000, -1.000000000000000000 ) ) ;
#143 = DIRECTION ( 'NONE',  ( -0.000000000000000000, -0.000000000000000000, -1.000000000000000000 ) ) ;
#144 = CARTESIAN_POINT ( 'NONE',  ( 0.000000000000000000, 0.000000000000000000, 5.199999999999982414 ) ) ;
#145 = DIRECTION ( 'NONE',  ( 0.000000000000000000, 0.000000000000000000, 1.000000000000000000 ) ) ;
#146 = ORIENTED_EDGE ( 'NONE', *, *, #80, .F. ) ;
#147 = FACE_OUTER_BOUND ( 'NONE', #120, .T. ) ;
#148 = DIRECTION ( 'NONE',  ( 0.000000000000000000, 0.000000000000000000, 1.000000000000000000 ) ) ;
#149 = CARTESIAN_POINT ( 'NONE',  ( 0.000000000000000000, 0.000000000000000000, 5.000000000000000000 ) ) ;
#150 = CARTESIAN_POINT ( 'NONE',  ( 4.299999999999998934, 0.000000000000000000, 4.999999999999991118 ) ) ;
#151 = EDGE_CURVE ( 'NONE', #278, #163, #130, .T. ) ;
#152 = APPLICATION_CONTEXT ( 'configuration controlled 3d designs of mechanical parts and assemblies' ) ;
#153 = DIRECTION ( 'NONE',  ( 0.000000000000000000, 0.000000000000000000, 1.000000000000000000 ) ) ;
#154 = SECURITY_CLASSIFICATION ( '', '', #115 ) ;
#155 = COORDINATED_UNIVERSAL_TIME_OFFSET ( 1, 0, .AHEAD. ) ;
#156 = PERSON_AND_ORGANIZATION ( #208, #285 ) ;
#157 = AXIS2_PLACEMENT_3D ( 'NONE', #144, #289, #169 ) ;
#158 = PERSON_AND_ORGANIZATION ( #208, #285 ) ;
#159 = VERTEX_POINT ( 'NONE', #223 ) ;
#160 = CIRCLE ( 'NONE', #157, 4.099999999999999645 ) ;
#161 = ORIENTED_EDGE ( 'NONE', *, *, #94, .F. ) ;
#162 = LOCAL_TIME ( 12, 0, 31.00000000000000000, #275 ) ;
#163 = VERTEX_POINT ( 'NONE', #150 ) ;
#164 = CIRCLE ( 'NONE', #118, 7.000000000000000000 ) ;
#165 = ORIENTED_EDGE ( 'NONE', *, *, #151, .T. ) ;
#166 = VERTEX_POINT ( 'NONE', #14 ) ;
#167 = DIRECTION ( 'NONE',  ( 0.000000000000000000, 0.000000000000000000, 1.000000000000000000 ) ) ;
#168 = CIRCLE ( 'NONE', #213, 7.000000000000000000 ) ;
#169 = DIRECTION ( 'NONE',  ( 1.000000000000000000, 0.000000000000000000, 0.000000000000000000 ) ) ;
#170 = AXIS2_PLACEMENT_3D ( 'NONE', #26, #57, #106 ) ;
#171 = EDGE_LOOP ( 'NONE', ( #161, #146, #220, #190 ) ) ;
#172 = TOROIDAL_SURFACE ( 'NONE', #135, 4.299999999999998934, 0.2000000000000000111 ) ;
#173 = PLANE ( 'NONE',  #210 ) ;
#174 = ADVANCED_FACE ( 'NONE', ( #37 ), #246, .T. ) ;
#175 = CARTESIAN_POINT ( 'NONE',  ( -4.099999999999999645, 0.000000000000000000, 505.0000000000000000 ) ) ;
#176 = PLANE ( 'NONE',  #242 ) ;
#177 = CARTESIAN_POINT ( 'NONE',  ( 0.000000000000000000, 0.000000000000000000, 5.199999999999982414 ) ) ;
#178 = AXIS2_PLACEMENT_3D ( 'NONE', #7, #239, #84 ) ;
#179 = COORDINATED_UNIVERSAL_TIME_OFFSET ( 1, 0, .AHEAD. ) ;
#180 =( NAMED_UNIT ( * ) SI_UNIT ( $, .STERADIAN. ) SOLID_ANGLE_UNIT ( ) );
#181 = LOCAL_TIME ( 12, 0, 31.00000000000000000, #201 ) ;
#182 = PERSON_AND_ORGANIZATION ( #208, #285 ) ;
#183 = APPROVAL ( #96, 'NEURÈENÝ' ) ;
#184 = APPROVAL_STATUS ( 'not_yet_approved' ) ;
#185 = AXIS2_PLACEMENT_3D ( 'NONE', #219, #108, #64 ) ;
#186 = EDGE_CURVE ( 'NONE', #159, #119, #267, .T. ) ;
#187 = ORIENTED_EDGE ( 'NONE', *, *, #59, .F. ) ;
#188 = LINE ( 'NONE', #107, #21 ) ;
#189 = CARTESIAN_POINT ( 'NONE',  ( 0.000000000000000000, 0.000000000000000000, 505.0000000000000000 ) ) ;
#190 = ORIENTED_EDGE ( 'NONE', *, *, #6, .T. ) ;
#191 = DIRECTION ( 'NONE',  ( 1.000000000000000000, 0.000000000000000000, -0.000000000000000000 ) ) ;
#192 = CIRCLE ( 'NONE', #69, 4.299999999999998934 ) ;
#193 = LINE ( 'NONE', #175, #92 ) ;
#194 = ORIENTED_EDGE ( 'NONE', *, *, #80, .T. ) ;
#195 = DIRECTION ( 'NONE',  ( 1.000000000000000000, 0.000000000000000000, -0.000000000000000000 ) ) ;
#196 = CARTESIAN_POINT ( 'NONE',  ( 0.000000000000000000, 0.000000000000000000, 5.000000000000000000 ) ) ;
#197 = APPLICATION_PROTOCOL_DEFINITION ( 'international standard', 'config_control_design', 1994, #268 ) ;
#198 = ADVANCED_FACE ( 'NONE', ( #215 ), #5, .T. ) ;
#199 = VECTOR ( 'NONE', #89, 1000.000000000000000 ) ;
#200 = APPROVAL ( #184, 'NEURÈENÝ' ) ;
#201 = COORDINATED_UNIVERSAL_TIME_OFFSET ( 1, 0, .AHEAD. ) ;
#202 = PRODUCT_DEFINITION_SHAPE ( 'NONE', 'NONE',  #24 ) ;
#203 = CALENDAR_DATE ( 2022, 7, 7 ) ;
#204 = ORIENTED_EDGE ( 'NONE', *, *, #94, .T. ) ;
#205 = MECHANICAL_CONTEXT ( 'NONE', #152, 'mechanical' ) ;
#206 = ORIENTED_EDGE ( 'NONE', *, *, #86, .F. ) ;
#207 = VECTOR ( 'NONE', #11, 1000.000000000000000 ) ;
#208 = PERSON ( 'NEURÈENÝ', 'NEURÈENÝ', 'NEURÈENÝ', ('NEURÈENÝ'), ('NEURÈENÝ'), ('NEURÈENÝ') ) ;
#209 = AXIS2_PLACEMENT_3D ( 'NONE', #189, #291, #217 ) ;
#210 = AXIS2_PLACEMENT_3D ( 'NONE', #91, #153, #34 ) ;
#211 = ORIENTED_EDGE ( 'NONE', *, *, #302, .F. ) ;
#212 = DIRECTION ( 'NONE',  ( 0.000000000000000000, 0.000000000000000000, 1.000000000000000000 ) ) ;
#213 = AXIS2_PLACEMENT_3D ( 'NONE', #126, #54, #287 ) ;
#214 = CARTESIAN_POINT ( 'NONE',  ( 0.000000000000000000, 0.000000000000000000, 5.000000000000000000 ) ) ;
#215 = FACE_OUTER_BOUND ( 'NONE', #257, .T. ) ;
#216 = DIRECTION ( 'NONE',  ( 1.000000000000000000, 0.000000000000000000, 0.000000000000000000 ) ) ;
#217 = DIRECTION ( 'NONE',  ( -1.000000000000000000, 0.000000000000000000, 0.000000000000000000 ) ) ;
#218 = CARTESIAN_POINT ( 'NONE',  ( -4.299999999999998934, 5.265981236333617484E-16, 4.999999999999991118 ) ) ;
#219 = CARTESIAN_POINT ( 'NONE',  ( 0.000000000000000000, 0.000000000000000000, 5.199999999999982414 ) ) ;
#220 = ORIENTED_EDGE ( 'NONE', *, *, #186, .T. ) ;
#221 = CC_DESIGN_DATE_AND_TIME_ASSIGNMENT ( #249, #230, ( #24 ) ) ;
#222 = CARTESIAN_POINT ( 'NONE',  ( 0.000000000000000000, 0.000000000000000000, 505.0000000000000000 ) ) ;
#223 = CARTESIAN_POINT ( 'NONE',  ( -7.000000000000000000, 0.000000000000000000, 5.000000000000000000 ) ) ;
#224 = DIRECTION ( 'NONE',  ( 1.000000000000000000, 0.000000000000000000, 0.000000000000000000 ) ) ;
#225 = PERSON_AND_ORGANIZATION_ROLE ( 'creator' ) ;
#226 = AXIS2_PLACEMENT_3D ( 'NONE', #214, #25, #292 ) ;
#227 = APPROVAL_ROLE ( '' ) ;
#228 = DATE_AND_TIME ( #134, #300 ) ;
#229 = ADVANCED_FACE ( 'NONE', ( #129 ), #248, .F. ) ;
#230 = DATE_TIME_ROLE ( 'creation_date' ) ;
#231 = APPROVAL_ROLE ( '' ) ;
#232 = APPROVAL_PERSON_ORGANIZATION ( #182, #282, #231 ) ;
#233 = VERTEX_POINT ( 'NONE', #32 ) ;
#234 = ORIENTED_EDGE ( 'NONE', *, *, #111, .F. ) ;
#235 = CIRCLE ( 'NONE', #178, 4.099999999999999645 ) ;
#236 = MANIFOLD_SOLID_BREP ( 'Zaoblit1', #63 ) ;
#237 = ORIENTED_EDGE ( 'NONE', *, *, #123, .F. ) ;
#238 = ORIENTED_EDGE ( 'NONE', *, *, #59, .T. ) ;
#239 = DIRECTION ( 'NONE',  ( 0.000000000000000000, 0.000000000000000000, 1.000000000000000000 ) ) ;
#240 = DIRECTION ( 'NONE',  ( 1.000000000000000000, 0.000000000000000000, 0.000000000000000000 ) ) ;
#241 = DIRECTION ( 'NONE',  ( -0.000000000000000000, -0.000000000000000000, -1.000000000000000000 ) ) ;
#242 = AXIS2_PLACEMENT_3D ( 'NONE', #247, #167, #191 ) ;
#243 = CARTESIAN_POINT ( 'NONE',  ( -4.299999999999998934, 5.265981236333617484E-16, 5.199999999999982414 ) ) ;
#244 = DIRECTION ( 'NONE',  ( 1.000000000000000000, 0.000000000000000000, 0.000000000000000000 ) ) ;
#245 = ORIENTED_EDGE ( 'NONE', *, *, #258, .T. ) ;
#246 = CYLINDRICAL_SURFACE ( 'NONE', #305, 7.000000000000000000 ) ;
#247 = CARTESIAN_POINT ( 'NONE',  ( 0.000000000000000000, 0.000000000000000000, 5.000000000000000000 ) ) ;
#248 = TOROIDAL_SURFACE ( 'NONE', #43, 4.299999999999998934, 0.2000000000000000111 ) ;
#249 = DATE_AND_TIME ( #40, #181 ) ;
#250 = COORDINATED_UNIVERSAL_TIME_OFFSET ( 1, 0, .AHEAD. ) ;
#251 = ADVANCED_FACE ( 'NONE', ( #13 ), #297, .T. ) ;
#252 = PERSON_AND_ORGANIZATION_ROLE ( 'design_owner' ) ;
#253 = CIRCLE ( 'NONE', #88, 0.1999999999999996503 ) ;
#254 = AXIS2_PLACEMENT_3D ( 'NONE', #68, #113, #99 ) ;
#255 = CC_DESIGN_PERSON_AND_ORGANIZATION_ASSIGNMENT ( #156, #225, ( #117 ) ) ;
#256 = CALENDAR_DATE ( 2022, 7, 7 ) ;
#257 = EDGE_LOOP ( 'NONE', ( #81, #204, #121, #269 ) ) ;
#258 = EDGE_CURVE ( 'NONE', #87, #278, #140, .T. ) ;
#259 = EDGE_LOOP ( 'NONE', ( #104, #22 ) ) ;
#260 = ADVANCED_FACE ( 'NONE', ( #85 ), #288, .T. ) ;
#261 = CARTESIAN_POINT ( 'NONE',  ( 0.000000000000000000, 0.000000000000000000, 0.000000000000000000 ) ) ;
#262 = CARTESIAN_POINT ( 'NONE',  ( 0.000000000000000000, 0.000000000000000000, 505.0000000000000000 ) ) ;
#263 = CIRCLE ( 'NONE', #42, 7.000000000000000000 ) ;
#264 = CARTESIAN_POINT ( 'NONE',  ( 0.000000000000000000, 0.000000000000000000, 5.000000000000000000 ) ) ;
#265 = DESIGN_CONTEXT ( 'detailed design', #268, 'design' ) ;
#266 = ORIENTED_EDGE ( 'NONE', *, *, #151, .F. ) ;
#267 = LINE ( 'NONE', #122, #199 ) ;
#268 = APPLICATION_CONTEXT ( 'configuration controlled 3d designs of mechanical parts and assemblies' ) ;
#269 = ORIENTED_EDGE ( 'NONE', *, *, #186, .F. ) ;
#270 = CARTESIAN_POINT ( 'NONE',  ( -4.099999999999999645, 0.000000000000000000, 505.0000000000000000 ) ) ;
#271 = CARTESIAN_POINT ( 'NONE',  ( 4.099999999999999645, 5.021051876504147385E-16, 505.0000000000000000 ) ) ;
#272 = PRODUCT_RELATED_PRODUCT_CATEGORY ( 'detail', '', ( #53 ) ) ;
#273 = ADVANCED_FACE ( 'NONE', ( #147 ), #173, .F. ) ;
#274 = FACE_OUTER_BOUND ( 'NONE', #2, .T. ) ;
#275 = COORDINATED_UNIVERSAL_TIME_OFFSET ( 1, 0, .AHEAD. ) ;
#276 =( GEOMETRIC_REPRESENTATION_CONTEXT ( 3 ) GLOBAL_UNCERTAINTY_ASSIGNED_CONTEXT ( ( #82 ) ) GLOBAL_UNIT_ASSIGNED_CONTEXT ( ( #10, #109, #180 ) ) REPRESENTATION_CONTEXT ( 'NONE', 'WORKASPACE' ) );
#277 = DATE_AND_TIME ( #41, #30 ) ;
#278 = VERTEX_POINT ( 'NONE', #296 ) ;
#279 = ADVANCED_FACE ( 'NONE', ( #274 ), #172, .F. ) ;
#280 = CIRCLE ( 'NONE', #226, 7.000000000000000000 ) ;
#281 = VERTEX_POINT ( 'NONE', #270 ) ;
#282 = APPROVAL ( #306, 'NEURÈENÝ' ) ;
#283 = CC_DESIGN_APPROVAL ( #183, ( #154 ) ) ;
#284 = CARTESIAN_POINT ( 'NONE',  ( 0.000000000000000000, 0.000000000000000000, 5.000000000000000000 ) ) ;
#285 = ORGANIZATION ( 'NEURÈENÝ', 'NEURÈENÝ', '' ) ;
#286 = ADVANCED_FACE ( 'NONE', ( #55, #83 ), #176, .T. ) ;
#287 = DIRECTION ( 'NONE',  ( 1.000000000000000000, 0.000000000000000000, 0.000000000000000000 ) ) ;
#288 = PLANE ( 'NONE',  #19 ) ;
#289 = DIRECTION ( 'NONE',  ( 0.000000000000000000, 0.000000000000000000, 1.000000000000000000 ) ) ;
#290 = AXIS2_PLACEMENT_3D ( 'NONE', #35, #124, #102 ) ;
#291 = DIRECTION ( 'NONE',  ( -0.000000000000000000, -0.000000000000000000, -1.000000000000000000 ) ) ;
#292 = DIRECTION ( 'NONE',  ( 1.000000000000000000, 0.000000000000000000, 0.000000000000000000 ) ) ;
#293 = EDGE_CURVE ( 'NONE', #233, #159, #164, .T. ) ;
#294 = ADVANCED_BREP_SHAPE_REPRESENTATION ( 'e5e5', ( #236, #254 ), #276 ) ;
#295 = FACE_OUTER_BOUND ( 'NONE', #72, .T. ) ;
#296 = CARTESIAN_POINT ( 'NONE',  ( 4.099999999999999645, 5.021051876504147385E-16, 5.199999999999982414 ) ) ;
#297 = CYLINDRICAL_SURFACE ( 'NONE', #209, 4.099999999999999645 ) ;
#298 = CIRCLE ( 'NONE', #27, 4.099999999999999645 ) ;
#299 = DATE_TIME_ROLE ( 'classification_date' ) ;
#300 = LOCAL_TIME ( 12, 0, 31.00000000000000000, #155 ) ;
#301 = CC_DESIGN_PERSON_AND_ORGANIZATION_ASSIGNMENT ( #66, #252, ( #53 ) ) ;
#302 = EDGE_CURVE ( 'NONE', #163, #90, #101, .T. ) ;
#303 = DATE_AND_TIME ( #203, #162 ) ;
#304 = PERSON_AND_ORGANIZATION ( #208, #285 ) ;
#305 = AXIS2_PLACEMENT_3D ( 'NONE', #131, #61, #29 ) ;
#306 = APPROVAL_STATUS ( 'not_yet_approved' ) ;
#307 = EDGE_CURVE ( 'NONE', #87, #90, #253, .T. ) ;
ENDSEC;
END-ISO-10303-21;
