ISO-10303-21;
HEADER;
FILE_DESCRIPTION (( 'STEP AP203' ),
    '1' );
FILE_NAME ('6220.STEP',
    '2022-07-07T10:13:07',
    ( '' ),
    ( '' ),
    'SwSTEP 2.0',
    'SolidWorks 2019',
    '' );
FILE_SCHEMA (( 'CONFIG_CONTROL_DESIGN' ));
ENDSEC;

DATA;
#1 = VERTEX_POINT ( 'NONE', #125 ) ;
#2 = ORIENTED_EDGE ( 'NONE', *, *, #18, .T. ) ;
#3 = DIRECTION ( 'NONE',  ( 1.000000000000000000, 0.000000000000000000, 0.000000000000000000 ) ) ;
#4 = CC_DESIGN_PERSON_AND_ORGANIZATION_ASSIGNMENT ( #291, #156, ( #300 ) ) ;
#5 = CARTESIAN_POINT ( 'NONE',  ( 0.000000000000000000, 0.000000000000000000, 5.199999999999982414 ) ) ;
#6 = EDGE_CURVE ( 'NONE', #262, #234, #99, .T. ) ;
#7 = DIRECTION ( 'NONE',  ( 0.000000000000000000, -1.000000000000000000, 0.000000000000000000 ) ) ;
#8 = AXIS2_PLACEMENT_3D ( 'NONE', #38, #14, #292 ) ;
#9 = COORDINATED_UNIVERSAL_TIME_OFFSET ( 1, 0, .AHEAD. ) ;
#10 = DIRECTION ( 'NONE',  ( -0.000000000000000000, -0.000000000000000000, -1.000000000000000000 ) ) ;
#11 = APPLICATION_PROTOCOL_DEFINITION ( 'international standard', 'config_control_design', 1994, #302 ) ;
#12 = DIRECTION ( 'NONE',  ( 1.000000000000000000, 0.000000000000000000, 0.000000000000000000 ) ) ;
#13 = CALENDAR_DATE ( 2022, 7, 7 ) ;
#14 = DIRECTION ( 'NONE',  ( 0.000000000000000000, 0.000000000000000000, 1.000000000000000000 ) ) ;
#15 = CIRCLE ( 'NONE', #255, 3.000000000000000444 ) ;
#16 = CIRCLE ( 'NONE', #140, 3.200000000000000622 ) ;
#17 =( NAMED_UNIT ( * ) PLANE_ANGLE_UNIT ( ) SI_UNIT ( $, .RADIAN. ) );
#18 = EDGE_CURVE ( 'NONE', #51, #22, #218, .T. ) ;
#19 = PERSON_AND_ORGANIZATION ( #55, #150 ) ;
#20 = VERTEX_POINT ( 'NONE', #104 ) ;
#21 = CC_DESIGN_PERSON_AND_ORGANIZATION_ASSIGNMENT ( #93, #182, ( #73 ) ) ;
#22 = VERTEX_POINT ( 'NONE', #305 ) ;
#23 = ORIENTED_EDGE ( 'NONE', *, *, #244, .T. ) ;
#24 = EDGE_LOOP ( 'NONE', ( #44, #119, #236, #212 ) ) ;
#25 = ORIENTED_EDGE ( 'NONE', *, *, #254, .T. ) ;
#26 = DIRECTION ( 'NONE',  ( 1.000000000000000000, 0.000000000000000000, 0.000000000000000000 ) ) ;
#27 = CIRCLE ( 'NONE', #139, 3.000000000000000444 ) ;
#28 = EDGE_CURVE ( 'NONE', #151, #167, #159, .T. ) ;
#29 = CARTESIAN_POINT ( 'NONE',  ( -3.200000000000000622, 3.918869757271530953E-16, 5.199999999999982414 ) ) ;
#30 = CARTESIAN_POINT ( 'NONE',  ( 3.000000000000000444, 3.673940397442060361E-16, 5.199999999999982414 ) ) ;
#31 = COORDINATED_UNIVERSAL_TIME_OFFSET ( 1, 0, .AHEAD. ) ;
#32 = MANIFOLD_SOLID_BREP ( 'Zaoblit1', #117 ) ;
#33 = CARTESIAN_POINT ( 'NONE',  ( -3.000000000000000444, 0.000000000000000000, 405.0000000000000000 ) ) ;
#34 = EDGE_CURVE ( 'NONE', #51, #301, #195, .T. ) ;
#35 = CALENDAR_DATE ( 2022, 7, 7 ) ;
#36 = DIRECTION ( 'NONE',  ( -1.000000000000000000, 0.000000000000000000, 0.000000000000000000 ) ) ;
#37 = APPROVAL_STATUS ( 'not_yet_approved' ) ;
#38 = CARTESIAN_POINT ( 'NONE',  ( 0.000000000000000000, 0.000000000000000000, 5.000000000000000000 ) ) ;
#39 = PERSON_AND_ORGANIZATION ( #55, #150 ) ;
#40 = VECTOR ( 'NONE', #54, 1000.000000000000000 ) ;
#41 = APPROVAL_STATUS ( 'not_yet_approved' ) ;
#42 = TOROIDAL_SURFACE ( 'NONE', #53, 3.200000000000000622, 0.2000000000000000111 ) ;
#43 = ORIENTED_EDGE ( 'NONE', *, *, #254, .F. ) ;
#44 = ORIENTED_EDGE ( 'NONE', *, *, #6, .F. ) ;
#45 = ORIENTED_EDGE ( 'NONE', *, *, #152, .T. ) ;
#46 = ADVANCED_FACE ( 'NONE', ( #101 ), #49, .T. ) ;
#47 = DIRECTION ( 'NONE',  ( 0.000000000000000000, 0.000000000000000000, 1.000000000000000000 ) ) ;
#48 = APPLICATION_CONTEXT ( 'configuration controlled 3d designs of mechanical parts and assemblies' ) ;
#49 = CYLINDRICAL_SURFACE ( 'NONE', #61, 6.000000000000000888 ) ;
#50 = ORIENTED_EDGE ( 'NONE', *, *, #239, .F. ) ;
#51 = VERTEX_POINT ( 'NONE', #197 ) ;
#52 = CARTESIAN_POINT ( 'NONE',  ( 0.000000000000000000, 0.000000000000000000, 5.000000000000000000 ) ) ;
#53 = AXIS2_PLACEMENT_3D ( 'NONE', #290, #247, #12 ) ;
#54 = DIRECTION ( 'NONE',  ( -0.000000000000000000, -0.000000000000000000, -1.000000000000000000 ) ) ;
#55 = PERSON ( 'NEURÈENÝ', 'NEURÈENÝ', 'NEURÈENÝ', ('NEURÈENÝ'), ('NEURÈENÝ'), ('NEURÈENÝ') ) ;
#56 = ADVANCED_FACE ( 'NONE', ( #223 ), #198, .T. ) ;
#57 = DIRECTION ( 'NONE',  ( 1.000000000000000000, 0.000000000000000000, 0.000000000000000000 ) ) ;
#58 = APPROVAL_ROLE ( '' ) ;
#59 = FACE_OUTER_BOUND ( 'NONE', #118, .T. ) ;
#60 = LOCAL_TIME ( 12, 13, 7.000000000000000000, #192 ) ;
#61 = AXIS2_PLACEMENT_3D ( 'NONE', #71, #169, #102 ) ;
#62 = DIRECTION ( 'NONE',  ( 1.224646799147353207E-16, 1.000000000000000000, -0.000000000000000000 ) ) ;
#63 = PERSON_AND_ORGANIZATION ( #55, #150 ) ;
#64 = CARTESIAN_POINT ( 'NONE',  ( -3.000000000000000444, 0.000000000000000000, 5.199999999999982414 ) ) ;
#65 = EDGE_CURVE ( 'NONE', #20, #301, #109, .T. ) ;
#66 = AXIS2_PLACEMENT_3D ( 'NONE', #52, #174, #286 ) ;
#67 = EDGE_LOOP ( 'NONE', ( #74, #278, #281, #253 ) ) ;
#68 = ORIENTED_EDGE ( 'NONE', *, *, #34, .F. ) ;
#69 = CIRCLE ( 'NONE', #283, 0.2000000000000000944 ) ;
#70 = AXIS2_PLACEMENT_3D ( 'NONE', #148, #241, #26 ) ;
#71 = CARTESIAN_POINT ( 'NONE',  ( 0.000000000000000000, 0.000000000000000000, 5.000000000000000000 ) ) ;
#72 = CYLINDRICAL_SURFACE ( 'NONE', #257, 3.000000000000000444 ) ;
#73 = SECURITY_CLASSIFICATION ( '', '', #248 ) ;
#74 = ORIENTED_EDGE ( 'NONE', *, *, #160, .F. ) ;
#75 = DIRECTION ( 'NONE',  ( -0.000000000000000000, -0.000000000000000000, -1.000000000000000000 ) ) ;
#76 = ADVANCED_FACE ( 'NONE', ( #173 ), #72, .T. ) ;
#77 = CARTESIAN_POINT ( 'NONE',  ( 0.000000000000000000, 0.000000000000000000, 0.000000000000000000 ) ) ;
#78 = CC_DESIGN_PERSON_AND_ORGANIZATION_ASSIGNMENT ( #191, #246, ( #299 ) ) ;
#79 = CIRCLE ( 'NONE', #8, 6.000000000000000888 ) ;
#80 = CYLINDRICAL_SURFACE ( 'NONE', #176, 3.000000000000000444 ) ;
#81 = AXIS2_PLACEMENT_3D ( 'NONE', #219, #47, #221 ) ;
#82 = CARTESIAN_POINT ( 'NONE',  ( 0.000000000000000000, 0.000000000000000000, 405.0000000000000000 ) ) ;
#83 = APPLICATION_PROTOCOL_DEFINITION ( 'international standard', 'config_control_design', 1994, #48 ) ;
#84 = DIRECTION ( 'NONE',  ( 1.000000000000000000, 0.000000000000000000, 0.000000000000000000 ) ) ;
#85 = DIRECTION ( 'NONE',  ( 1.000000000000000000, 0.000000000000000000, 0.000000000000000000 ) ) ;
#86 = DESIGN_CONTEXT ( 'detailed design', #48, 'design' ) ;
#87 = PLANE ( 'NONE',  #88 ) ;
#88 = AXIS2_PLACEMENT_3D ( 'NONE', #157, #249, #273 ) ;
#89 = CALENDAR_DATE ( 2022, 7, 7 ) ;
#90 = DIRECTION ( 'NONE',  ( 0.000000000000000000, 0.000000000000000000, -1.000000000000000000 ) ) ;
#91 = APPROVAL_DATE_TIME ( #270, #122 ) ;
#92 = ORIENTED_EDGE ( 'NONE', *, *, #177, .T. ) ;
#93 = PERSON_AND_ORGANIZATION ( #55, #150 ) ;
#94 = LOCAL_TIME ( 12, 13, 7.000000000000000000, #141 ) ;
#95 = CC_DESIGN_PERSON_AND_ORGANIZATION_ASSIGNMENT ( #276, #112, ( #172 ) ) ;
#96 = EDGE_LOOP ( 'NONE', ( #175, #144, #214, #303 ) ) ;
#97 = EDGE_LOOP ( 'NONE', ( #25, #45 ) ) ;
#98 = VECTOR ( 'NONE', #227, 1000.000000000000000 ) ;
#99 = CIRCLE ( 'NONE', #179, 3.000000000000000444 ) ;
#100 = LOCAL_TIME ( 12, 13, 7.000000000000000000, #9 ) ;
#101 = FACE_OUTER_BOUND ( 'NONE', #96, .T. ) ;
#102 = DIRECTION ( 'NONE',  ( -1.000000000000000000, 0.000000000000000000, 0.000000000000000000 ) ) ;
#103 = CARTESIAN_POINT ( 'NONE',  ( 0.000000000000000000, 0.000000000000000000, 0.000000000000000000 ) ) ;
#104 = CARTESIAN_POINT ( 'NONE',  ( -6.000000000000000888, 0.000000000000000000, 0.000000000000000000 ) ) ;
#105 = AXIS2_PLACEMENT_3D ( 'NONE', #103, #259, #3 ) ;
#106 = ORIENTED_EDGE ( 'NONE', *, *, #136, .T. ) ;
#107 = LINE ( 'NONE', #162, #40 ) ;
#108 = PLANE ( 'NONE',  #222 ) ;
#109 = CIRCLE ( 'NONE', #105, 6.000000000000000888 ) ;
#110 = UNCERTAINTY_MEASURE_WITH_UNIT (LENGTH_MEASURE( 1.000000000000000082E-05 ), #252, 'distance_accuracy_value', 'NONE');
#111 = FACE_OUTER_BOUND ( 'NONE', #67, .T. ) ;
#112 = PERSON_AND_ORGANIZATION_ROLE ( 'design_owner' ) ;
#113 = PRODUCT_RELATED_PRODUCT_CATEGORY ( 'detail', '', ( #172 ) ) ;
#114 = CARTESIAN_POINT ( 'NONE',  ( 0.000000000000000000, 0.000000000000000000, 5.000000000000000000 ) ) ;
#115 = DIRECTION ( 'NONE',  ( -0.000000000000000000, -0.000000000000000000, -1.000000000000000000 ) ) ;
#116 = ORIENTED_EDGE ( 'NONE', *, *, #129, .F. ) ;
#117 = CLOSED_SHELL ( 'NONE', ( #280, #76, #46, #56, #231, #307, #183, #265, #170 ) ) ;
#118 = EDGE_LOOP ( 'NONE', ( #238, #116 ) ) ;
#119 = ORIENTED_EDGE ( 'NONE', *, *, #160, .T. ) ;
#120 = ORIENTED_EDGE ( 'NONE', *, *, #196, .T. ) ;
#121 = ORIENTED_EDGE ( 'NONE', *, *, #65, .T. ) ;
#122 = APPROVAL ( #211, 'NEURÈENÝ' ) ;
#123 = PRODUCT_DEFINITION_SHAPE ( 'NONE', 'NONE',  #300 ) ;
#124 = CARTESIAN_POINT ( 'NONE',  ( 0.000000000000000000, 0.000000000000000000, 5.199999999999982414 ) ) ;
#125 = CARTESIAN_POINT ( 'NONE',  ( 3.000000000000000444, 3.673940397442060361E-16, 405.0000000000000000 ) ) ;
#126 = CIRCLE ( 'NONE', #215, 3.000000000000000444 ) ;
#127 = DIRECTION ( 'NONE',  ( 1.000000000000000000, 0.000000000000000000, 0.000000000000000000 ) ) ;
#128 = AXIS2_PLACEMENT_3D ( 'NONE', #77, #146, #237 ) ;
#129 = EDGE_CURVE ( 'NONE', #301, #20, #188, .T. ) ;
#130 = DIRECTION ( 'NONE',  ( -1.000000000000000000, 1.224646799147353207E-16, 0.000000000000000000 ) ) ;
#131 = DIRECTION ( 'NONE',  ( 0.000000000000000000, 0.000000000000000000, 1.000000000000000000 ) ) ;
#132 = DATE_AND_TIME ( #161, #158 ) ;
#133 = LINE ( 'NONE', #268, #98 ) ;
#134 = APPROVAL_DATE_TIME ( #229, #168 ) ;
#135 = COORDINATED_UNIVERSAL_TIME_OFFSET ( 1, 0, .AHEAD. ) ;
#136 = EDGE_CURVE ( 'NONE', #234, #262, #126, .T. ) ;
#137 = LINE ( 'NONE', #181, #194 ) ;
#138 = DIRECTION ( 'NONE',  ( 0.000000000000000000, 0.000000000000000000, 1.000000000000000000 ) ) ;
#139 = AXIS2_PLACEMENT_3D ( 'NONE', #82, #190, #84 ) ;
#140 = AXIS2_PLACEMENT_3D ( 'NONE', #155, #115, #57 ) ;
#141 = COORDINATED_UNIVERSAL_TIME_OFFSET ( 1, 0, .AHEAD. ) ;
#142 = ORIENTED_EDGE ( 'NONE', *, *, #239, .T. ) ;
#143 = APPROVAL ( #41, 'NEURÈENÝ' ) ;
#144 = ORIENTED_EDGE ( 'NONE', *, *, #34, .T. ) ;
#145 = EDGE_LOOP ( 'NONE', ( #142, #2 ) ) ;
#146 = DIRECTION ( 'NONE',  ( 0.000000000000000000, 0.000000000000000000, 1.000000000000000000 ) ) ;
#147 = EDGE_LOOP ( 'NONE', ( #68, #50, #120, #121 ) ) ;
#148 = CARTESIAN_POINT ( 'NONE',  ( 0.000000000000000000, 0.000000000000000000, 5.000000000000000000 ) ) ;
#149 = AXIS2_PLACEMENT_3D ( 'NONE', #5, #228, #275 ) ;
#150 = ORGANIZATION ( 'NEURÈENÝ', 'NEURÈENÝ', '' ) ;
#151 = VERTEX_POINT ( 'NONE', #186 ) ;
#152 = EDGE_CURVE ( 'NONE', #1, #306, #15, .T. ) ;
#153 = PLANE ( 'NONE',  #216 ) ;
#154 = MECHANICAL_CONTEXT ( 'NONE', #302, 'mechanical' ) ;
#155 = CARTESIAN_POINT ( 'NONE',  ( 0.000000000000000000, 0.000000000000000000, 5.000000000000000000 ) ) ;
#156 = PERSON_AND_ORGANIZATION_ROLE ( 'creator' ) ;
#157 = CARTESIAN_POINT ( 'NONE',  ( 0.000000000000000000, 0.000000000000000000, 0.000000000000000000 ) ) ;
#158 = LOCAL_TIME ( 12, 13, 7.000000000000000000, #135 ) ;
#159 = CIRCLE ( 'NONE', #70, 3.200000000000000622 ) ;
#160 = EDGE_CURVE ( 'NONE', #262, #167, #69, .T. ) ;
#161 = CALENDAR_DATE ( 2022, 7, 7 ) ;
#162 = CARTESIAN_POINT ( 'NONE',  ( -6.000000000000000888, 0.000000000000000000, 5.000000000000000000 ) ) ;
#163 = APPROVAL_ROLE ( '' ) ;
#164 = CC_DESIGN_PERSON_AND_ORGANIZATION_ASSIGNMENT ( #189, #298, ( #299 ) ) ;
#165 = APPROVAL_DATE_TIME ( #274, #143 ) ;
#166 = VECTOR ( 'NONE', #75, 1000.000000000000000 ) ;
#167 = VERTEX_POINT ( 'NONE', #224 ) ;
#168 = APPROVAL ( #37, 'NEURÈENÝ' ) ;
#169 = DIRECTION ( 'NONE',  ( -0.000000000000000000, -0.000000000000000000, -1.000000000000000000 ) ) ;
#170 = ADVANCED_FACE ( 'NONE', ( #111 ), #240, .F. ) ;
#171 = CARTESIAN_POINT ( 'NONE',  ( 0.000000000000000000, 0.000000000000000000, 405.0000000000000000 ) ) ;
#172 = PRODUCT ( '6220', '6220', '', ( #154 ) ) ;
#173 = FACE_OUTER_BOUND ( 'NONE', #279, .T. ) ;
#174 = DIRECTION ( 'NONE',  ( -0.000000000000000000, -0.000000000000000000, -1.000000000000000000 ) ) ;
#175 = ORIENTED_EDGE ( 'NONE', *, *, #18, .F. ) ;
#176 = AXIS2_PLACEMENT_3D ( 'NONE', #243, #10, #36 ) ;
#177 = EDGE_CURVE ( 'NONE', #1, #234, #137, .T. ) ;
#178 = LOCAL_TIME ( 12, 13, 7.000000000000000000, #31 ) ;
#179 = AXIS2_PLACEMENT_3D ( 'NONE', #124, #217, #127 ) ;
#180 = FACE_OUTER_BOUND ( 'NONE', #282, .T. ) ;
#181 = CARTESIAN_POINT ( 'NONE',  ( 3.000000000000000444, 3.673940397442060361E-16, 405.0000000000000000 ) ) ;
#182 = PERSON_AND_ORGANIZATION_ROLE ( 'classification_officer' ) ;
#183 = ADVANCED_FACE ( 'NONE', ( #180 ), #80, .T. ) ;
#184 = DIRECTION ( 'NONE',  ( 1.000000000000000000, 0.000000000000000000, 0.000000000000000000 ) ) ;
#185 = SHAPE_DEFINITION_REPRESENTATION ( #123, #199 ) ;
#186 = CARTESIAN_POINT ( 'NONE',  ( 3.200000000000000622, 0.000000000000000000, 4.999999999999991118 ) ) ;
#187 = APPROVAL_PERSON_ORGANIZATION ( #63, #143, #163 ) ;
#188 = CIRCLE ( 'NONE', #128, 6.000000000000000888 ) ;
#189 = PERSON_AND_ORGANIZATION ( #55, #150 ) ;
#190 = DIRECTION ( 'NONE',  ( 0.000000000000000000, 0.000000000000000000, 1.000000000000000000 ) ) ;
#191 = PERSON_AND_ORGANIZATION ( #55, #150 ) ;
#192 = COORDINATED_UNIVERSAL_TIME_OFFSET ( 1, 0, .AHEAD. ) ;
#193 = EDGE_CURVE ( 'NONE', #306, #262, #133, .T. ) ;
#194 = VECTOR ( 'NONE', #250, 1000.000000000000000 ) ;
#195 = LINE ( 'NONE', #264, #166 ) ;
#196 = EDGE_CURVE ( 'NONE', #22, #20, #107, .T. ) ;
#197 = CARTESIAN_POINT ( 'NONE',  ( 6.000000000000000888, 7.347880794884120722E-16, 5.000000000000000000 ) ) ;
#198 = CYLINDRICAL_SURFACE ( 'NONE', #66, 6.000000000000000888 ) ;
#199 = ADVANCED_BREP_SHAPE_REPRESENTATION ( '6220', ( #32, #242 ), #266 ) ;
#200 = DIRECTION ( 'NONE',  ( 0.000000000000000000, 0.000000000000000000, 1.000000000000000000 ) ) ;
#201 = DIRECTION ( 'NONE',  ( -1.000000000000000000, 0.000000000000000000, 0.000000000000000000 ) ) ;
#202 = CARTESIAN_POINT ( 'NONE',  ( 0.000000000000000000, 0.000000000000000000, 405.0000000000000000 ) ) ;
#203 = APPROVAL_PERSON_ORGANIZATION ( #19, #122, #272 ) ;
#204 = CARTESIAN_POINT ( 'NONE',  ( 6.000000000000000888, 7.347880794884120722E-16, 0.000000000000000000 ) ) ;
#205 = CARTESIAN_POINT ( 'NONE',  ( 0.000000000000000000, 0.000000000000000000, 0.000000000000000000 ) ) ;
#206 = FACE_BOUND ( 'NONE', #297, .T. ) ;
#207 = DATE_AND_TIME ( #35, #178 ) ;
#208 = FACE_OUTER_BOUND ( 'NONE', #97, .T. ) ;
#209 = CARTESIAN_POINT ( 'NONE',  ( 0.000000000000000000, 0.000000000000000000, 405.0000000000000000 ) ) ;
#210 = AXIS2_PLACEMENT_3D ( 'NONE', #295, #7, #90 ) ;
#211 = APPROVAL_STATUS ( 'not_yet_approved' ) ;
#212 = ORIENTED_EDGE ( 'NONE', *, *, #258, .F. ) ;
#213 = CC_DESIGN_SECURITY_CLASSIFICATION ( #73, ( #299 ) ) ;
#214 = ORIENTED_EDGE ( 'NONE', *, *, #129, .T. ) ;
#215 = AXIS2_PLACEMENT_3D ( 'NONE', #289, #200, #263 ) ;
#216 = AXIS2_PLACEMENT_3D ( 'NONE', #114, #131, #225 ) ;
#217 = DIRECTION ( 'NONE',  ( 0.000000000000000000, 0.000000000000000000, 1.000000000000000000 ) ) ;
#218 = CIRCLE ( 'NONE', #81, 6.000000000000000888 ) ;
#219 = CARTESIAN_POINT ( 'NONE',  ( 0.000000000000000000, 0.000000000000000000, 5.000000000000000000 ) ) ;
#220 = ORIENTED_EDGE ( 'NONE', *, *, #177, .F. ) ;
#221 = DIRECTION ( 'NONE',  ( 1.000000000000000000, 0.000000000000000000, 0.000000000000000000 ) ) ;
#222 = AXIS2_PLACEMENT_3D ( 'NONE', #202, #269, #294 ) ;
#223 = FACE_OUTER_BOUND ( 'NONE', #147, .T. ) ;
#224 = CARTESIAN_POINT ( 'NONE',  ( -3.200000000000000622, 3.918869757271530953E-16, 4.999999999999991118 ) ) ;
#225 = DIRECTION ( 'NONE',  ( 1.000000000000000000, 0.000000000000000000, -0.000000000000000000 ) ) ;
#226 = DATE_TIME_ROLE ( 'classification_date' ) ;
#227 = DIRECTION ( 'NONE',  ( -0.000000000000000000, -0.000000000000000000, -1.000000000000000000 ) ) ;
#228 = DIRECTION ( 'NONE',  ( 0.000000000000000000, 0.000000000000000000, 1.000000000000000000 ) ) ;
#229 = DATE_AND_TIME ( #13, #60 ) ;
#230 = FACE_OUTER_BOUND ( 'NONE', #145, .T. ) ;
#231 = ADVANCED_FACE ( 'NONE', ( #206, #230 ), #153, .T. ) ;
#232 = CC_DESIGN_APPROVAL ( #143, ( #300 ) ) ;
#233 =( NAMED_UNIT ( * ) SI_UNIT ( $, .STERADIAN. ) SOLID_ANGLE_UNIT ( ) );
#234 = VERTEX_POINT ( 'NONE', #30 ) ;
#235 = ORIENTED_EDGE ( 'NONE', *, *, #6, .T. ) ;
#236 = ORIENTED_EDGE ( 'NONE', *, *, #28, .F. ) ;
#237 = DIRECTION ( 'NONE',  ( 1.000000000000000000, 0.000000000000000000, 0.000000000000000000 ) ) ;
#238 = ORIENTED_EDGE ( 'NONE', *, *, #65, .F. ) ;
#239 = EDGE_CURVE ( 'NONE', #22, #51, #79, .T. ) ;
#240 = TOROIDAL_SURFACE ( 'NONE', #149, 3.200000000000000622, 0.2000000000000000111 ) ;
#241 = DIRECTION ( 'NONE',  ( -0.000000000000000000, -0.000000000000000000, -1.000000000000000000 ) ) ;
#242 = AXIS2_PLACEMENT_3D ( 'NONE', #205, #138, #85 ) ;
#243 = CARTESIAN_POINT ( 'NONE',  ( 0.000000000000000000, 0.000000000000000000, 405.0000000000000000 ) ) ;
#244 = EDGE_CURVE ( 'NONE', #167, #151, #16, .T. ) ;
#245 = DIRECTION ( 'NONE',  ( 0.000000000000000000, 0.000000000000000000, 1.000000000000000000 ) ) ;
#246 = PERSON_AND_ORGANIZATION_ROLE ( 'design_supplier' ) ;
#247 = DIRECTION ( 'NONE',  ( 0.000000000000000000, 0.000000000000000000, 1.000000000000000000 ) ) ;
#248 = SECURITY_CLASSIFICATION_LEVEL ( 'unclassified' ) ;
#249 = DIRECTION ( 'NONE',  ( 0.000000000000000000, 0.000000000000000000, 1.000000000000000000 ) ) ;
#250 = DIRECTION ( 'NONE',  ( -0.000000000000000000, -0.000000000000000000, -1.000000000000000000 ) ) ;
#251 = CALENDAR_DATE ( 2022, 7, 7 ) ;
#252 =( LENGTH_UNIT ( ) NAMED_UNIT ( * ) SI_UNIT ( .MILLI., .METRE. ) );
#253 = ORIENTED_EDGE ( 'NONE', *, *, #244, .F. ) ;
#254 = EDGE_CURVE ( 'NONE', #306, #1, #27, .T. ) ;
#255 = AXIS2_PLACEMENT_3D ( 'NONE', #209, #245, #184 ) ;
#256 = ORIENTED_EDGE ( 'NONE', *, *, #152, .F. ) ;
#257 = AXIS2_PLACEMENT_3D ( 'NONE', #171, #260, #201 ) ;
#258 = EDGE_CURVE ( 'NONE', #234, #151, #304, .T. ) ;
#259 = DIRECTION ( 'NONE',  ( 0.000000000000000000, 0.000000000000000000, 1.000000000000000000 ) ) ;
#260 = DIRECTION ( 'NONE',  ( -0.000000000000000000, -0.000000000000000000, -1.000000000000000000 ) ) ;
#261 = APPROVAL_PERSON_ORGANIZATION ( #39, #168, #58 ) ;
#262 = VERTEX_POINT ( 'NONE', #64 ) ;
#263 = DIRECTION ( 'NONE',  ( 1.000000000000000000, 0.000000000000000000, 0.000000000000000000 ) ) ;
#264 = CARTESIAN_POINT ( 'NONE',  ( 6.000000000000000888, 7.347880794884120722E-16, 5.000000000000000000 ) ) ;
#265 = ADVANCED_FACE ( 'NONE', ( #208 ), #108, .T. ) ;
#266 =( GEOMETRIC_REPRESENTATION_CONTEXT ( 3 ) GLOBAL_UNCERTAINTY_ASSIGNED_CONTEXT ( ( #110 ) ) GLOBAL_UNIT_ASSIGNED_CONTEXT ( ( #252, #17, #233 ) ) REPRESENTATION_CONTEXT ( 'NONE', 'WORKASPACE' ) );
#267 = CC_DESIGN_APPROVAL ( #122, ( #299 ) ) ;
#268 = CARTESIAN_POINT ( 'NONE',  ( -3.000000000000000444, 0.000000000000000000, 405.0000000000000000 ) ) ;
#269 = DIRECTION ( 'NONE',  ( 0.000000000000000000, 0.000000000000000000, 1.000000000000000000 ) ) ;
#270 = DATE_AND_TIME ( #89, #100 ) ;
#271 = FACE_OUTER_BOUND ( 'NONE', #24, .T. ) ;
#272 = APPROVAL_ROLE ( '' ) ;
#273 = DIRECTION ( 'NONE',  ( 1.000000000000000000, 0.000000000000000000, -0.000000000000000000 ) ) ;
#274 = DATE_AND_TIME ( #251, #94 ) ;
#275 = DIRECTION ( 'NONE',  ( 1.000000000000000000, 0.000000000000000000, 0.000000000000000000 ) ) ;
#276 = PERSON_AND_ORGANIZATION ( #55, #150 ) ;
#277 = CC_DESIGN_DATE_AND_TIME_ASSIGNMENT ( #132, #226, ( #73 ) ) ;
#278 = ORIENTED_EDGE ( 'NONE', *, *, #136, .F. ) ;
#279 = EDGE_LOOP ( 'NONE', ( #256, #92, #106, #288 ) ) ;
#280 = ADVANCED_FACE ( 'NONE', ( #271 ), #42, .F. ) ;
#281 = ORIENTED_EDGE ( 'NONE', *, *, #258, .T. ) ;
#282 = EDGE_LOOP ( 'NONE', ( #220, #43, #285, #235 ) ) ;
#283 = AXIS2_PLACEMENT_3D ( 'NONE', #29, #62, #130 ) ;
#284 = CC_DESIGN_APPROVAL ( #168, ( #73 ) ) ;
#285 = ORIENTED_EDGE ( 'NONE', *, *, #193, .T. ) ;
#286 = DIRECTION ( 'NONE',  ( -1.000000000000000000, 0.000000000000000000, 0.000000000000000000 ) ) ;
#287 = ORIENTED_EDGE ( 'NONE', *, *, #28, .T. ) ;
#288 = ORIENTED_EDGE ( 'NONE', *, *, #193, .F. ) ;
#289 = CARTESIAN_POINT ( 'NONE',  ( 0.000000000000000000, 0.000000000000000000, 5.199999999999982414 ) ) ;
#290 = CARTESIAN_POINT ( 'NONE',  ( 0.000000000000000000, 0.000000000000000000, 5.199999999999982414 ) ) ;
#291 = PERSON_AND_ORGANIZATION ( #55, #150 ) ;
#292 = DIRECTION ( 'NONE',  ( 1.000000000000000000, 0.000000000000000000, 0.000000000000000000 ) ) ;
#293 = DATE_TIME_ROLE ( 'creation_date' ) ;
#294 = DIRECTION ( 'NONE',  ( 1.000000000000000000, 0.000000000000000000, -0.000000000000000000 ) ) ;
#295 = CARTESIAN_POINT ( 'NONE',  ( 3.200000000000000622, 0.000000000000000000, 5.199999999999982414 ) ) ;
#296 = CC_DESIGN_DATE_AND_TIME_ASSIGNMENT ( #207, #293, ( #300 ) ) ;
#297 = EDGE_LOOP ( 'NONE', ( #287, #23 ) ) ;
#298 = PERSON_AND_ORGANIZATION_ROLE ( 'creator' ) ;
#299 = PRODUCT_DEFINITION_FORMATION_WITH_SPECIFIED_SOURCE ( 'LIBOVOLNÝ', '', #172, .NOT_KNOWN. ) ;
#300 = PRODUCT_DEFINITION ( 'NEZNÁMÝ', '', #299, #86 ) ;
#301 = VERTEX_POINT ( 'NONE', #204 ) ;
#302 = APPLICATION_CONTEXT ( 'configuration controlled 3d designs of mechanical parts and assemblies' ) ;
#303 = ORIENTED_EDGE ( 'NONE', *, *, #196, .F. ) ;
#304 = CIRCLE ( 'NONE', #210, 0.1999999999999996503 ) ;
#305 = CARTESIAN_POINT ( 'NONE',  ( -6.000000000000000888, 0.000000000000000000, 5.000000000000000000 ) ) ;
#306 = VERTEX_POINT ( 'NONE', #33 ) ;
#307 = ADVANCED_FACE ( 'NONE', ( #59 ), #87, .F. ) ;
ENDSEC;
END-ISO-10303-21;
