ISO-10303-21;
HEADER;
FILE_DESCRIPTION (( 'STEP AP203' ),
    '1' );
FILE_NAME ('79ed.STEP',
    '2022-07-07T10:05:54',
    ( '' ),
    ( '' ),
    'SwSTEP 2.0',
    'SolidWorks 2019',
    '' );
FILE_SCHEMA (( 'CONFIG_CONTROL_DESIGN' ));
ENDSEC;

DATA;
#1 = FACE_OUTER_BOUND ( 'NONE', #12, .T. ) ;
#2 = DIRECTION ( 'NONE',  ( 1.000000000000000000, 0.000000000000000000, -0.000000000000000000 ) ) ;
#3 = PERSON_AND_ORGANIZATION ( #192, #22 ) ;
#4 = AXIS2_PLACEMENT_3D ( 'NONE', #246, #218, #130 ) ;
#5 = APPROVAL_ROLE ( '' ) ;
#6 = PERSON_AND_ORGANIZATION_ROLE ( 'design_owner' ) ;
#7 = APPROVAL_STATUS ( 'not_yet_approved' ) ;
#8 = CARTESIAN_POINT ( 'NONE',  ( 0.000000000000000000, 0.000000000000000000, 5.000000000000000000 ) ) ;
#9 = EDGE_CURVE ( 'NONE', #295, #106, #76, .T. ) ;
#10 = DIRECTION ( 'NONE',  ( 0.000000000000000000, 0.000000000000000000, 1.000000000000000000 ) ) ;
#11 = VERTEX_POINT ( 'NONE', #154 ) ;
#12 = EDGE_LOOP ( 'NONE', ( #176, #135, #39, #160 ) ) ;
#13 = CARTESIAN_POINT ( 'NONE',  ( -3.750000000000000000, 0.000000000000000000, 105.0000000000000142 ) ) ;
#14 = DIRECTION ( 'NONE',  ( -1.000000000000000000, 0.000000000000000000, 0.000000000000000000 ) ) ;
#15 = ORIENTED_EDGE ( 'NONE', *, *, #202, .T. ) ;
#16 = ORIENTED_EDGE ( 'NONE', *, *, #235, .T. ) ;
#17 = CC_DESIGN_DATE_AND_TIME_ASSIGNMENT ( #236, #29, ( #104 ) ) ;
#18 = EDGE_CURVE ( 'NONE', #11, #64, #201, .T. ) ;
#19 = DIRECTION ( 'NONE',  ( 1.000000000000000000, 0.000000000000000000, 0.000000000000000000 ) ) ;
#20 = AXIS2_PLACEMENT_3D ( 'NONE', #145, #208, #19 ) ;
#21 = DIRECTION ( 'NONE',  ( 0.000000000000000000, 0.000000000000000000, 1.000000000000000000 ) ) ;
#22 = ORGANIZATION ( 'NEURÈENÝ', 'NEURÈENÝ', '' ) ;
#23 = CARTESIAN_POINT ( 'NONE',  ( -6.000000000000000888, 0.000000000000000000, 5.000000000000000000 ) ) ;
#24 = SECURITY_CLASSIFICATION_LEVEL ( 'unclassified' ) ;
#25 = ADVANCED_BREP_SHAPE_REPRESENTATION ( '79ed', ( #46, #203 ), #55 ) ;
#26 = APPROVAL ( #122, 'NEURÈENÝ' ) ;
#27 = PERSON_AND_ORGANIZATION ( #192, #22 ) ;
#28 = CC_DESIGN_PERSON_AND_ORGANIZATION_ASSIGNMENT ( #169, #263, ( #104 ) ) ;
#29 = DATE_TIME_ROLE ( 'classification_date' ) ;
#30 = DATE_AND_TIME ( #72, #233 ) ;
#31 = COORDINATED_UNIVERSAL_TIME_OFFSET ( 1, 0, .AHEAD. ) ;
#32 = CIRCLE ( 'NONE', #265, 3.750000000000000000 ) ;
#33 = DIRECTION ( 'NONE',  ( -0.000000000000000000, -0.000000000000000000, -1.000000000000000000 ) ) ;
#34 = CARTESIAN_POINT ( 'NONE',  ( 6.000000000000000888, 7.347880794884120722E-16, 5.000000000000000000 ) ) ;
#35 = ORIENTED_EDGE ( 'NONE', *, *, #235, .F. ) ;
#36 = DIRECTION ( 'NONE',  ( -0.000000000000000000, -0.000000000000000000, -1.000000000000000000 ) ) ;
#37 = ORIENTED_EDGE ( 'NONE', *, *, #181, .T. ) ;
#38 = AXIS2_PLACEMENT_3D ( 'NONE', #198, #248, #83 ) ;
#39 = ORIENTED_EDGE ( 'NONE', *, *, #108, .T. ) ;
#40 = EDGE_LOOP ( 'NONE', ( #200, #293 ) ) ;
#41 = DATE_AND_TIME ( #288, #264 ) ;
#42 = EDGE_CURVE ( 'NONE', #84, #158, #273, .T. ) ;
#43 = CLOSED_SHELL ( 'NONE', ( #73, #262, #50, #226, #162, #172, #128, #51, #170 ) ) ;
#44 = CYLINDRICAL_SURFACE ( 'NONE', #299, 3.750000000000000000 ) ;
#45 = FACE_OUTER_BOUND ( 'NONE', #91, .T. ) ;
#46 = MANIFOLD_SOLID_BREP ( 'Zaoblit1', #43 ) ;
#47 = DIRECTION ( 'NONE',  ( 0.000000000000000000, 0.000000000000000000, 1.000000000000000000 ) ) ;
#48 = DIRECTION ( 'NONE',  ( 1.000000000000000000, 0.000000000000000000, 0.000000000000000000 ) ) ;
#49 = CALENDAR_DATE ( 2022, 7, 7 ) ;
#50 = ADVANCED_FACE ( 'NONE', ( #297 ), #58, .T. ) ;
#51 = ADVANCED_FACE ( 'NONE', ( #171 ), #290, .T. ) ;
#52 = CALENDAR_DATE ( 2022, 7, 7 ) ;
#53 = APPROVAL_DATE_TIME ( #266, #249 ) ;
#54 = DIRECTION ( 'NONE',  ( 1.000000000000000000, 0.000000000000000000, -0.000000000000000000 ) ) ;
#55 =( GEOMETRIC_REPRESENTATION_CONTEXT ( 3 ) GLOBAL_UNCERTAINTY_ASSIGNED_CONTEXT ( ( #278 ) ) GLOBAL_UNIT_ASSIGNED_CONTEXT ( ( #258, #93, #99 ) ) REPRESENTATION_CONTEXT ( 'NONE', 'WORKASPACE' ) );
#56 = EDGE_LOOP ( 'NONE', ( #15, #81 ) ) ;
#57 = CARTESIAN_POINT ( 'NONE',  ( 0.000000000000000000, 0.000000000000000000, 5.000000000000000000 ) ) ;
#58 = CYLINDRICAL_SURFACE ( 'NONE', #161, 6.000000000000000888 ) ;
#59 = EDGE_LOOP ( 'NONE', ( #253, #180, #298, #199 ) ) ;
#60 = DIRECTION ( 'NONE',  ( 0.000000000000000000, 0.000000000000000000, 1.000000000000000000 ) ) ;
#61 = CIRCLE ( 'NONE', #133, 0.1999999999999996503 ) ;
#62 = EDGE_CURVE ( 'NONE', #300, #112, #228, .T. ) ;
#63 = ORIENTED_EDGE ( 'NONE', *, *, #42, .F. ) ;
#64 = VERTEX_POINT ( 'NONE', #150 ) ;
#65 = EDGE_CURVE ( 'NONE', #300, #64, #193, .T. ) ;
#66 = APPROVAL_PERSON_ORGANIZATION ( #237, #249, #100 ) ;
#67 = CARTESIAN_POINT ( 'NONE',  ( 0.000000000000000000, 0.000000000000000000, 5.000000000000000000 ) ) ;
#68 = FACE_OUTER_BOUND ( 'NONE', #223, .T. ) ;
#69 = CIRCLE ( 'NONE', #165, 3.949999999999999734 ) ;
#70 = CARTESIAN_POINT ( 'NONE',  ( 0.000000000000000000, 0.000000000000000000, 105.0000000000000142 ) ) ;
#71 = DIRECTION ( 'NONE',  ( 1.000000000000000000, 0.000000000000000000, 0.000000000000000000 ) ) ;
#72 = CALENDAR_DATE ( 2022, 7, 7 ) ;
#73 = ADVANCED_FACE ( 'NONE', ( #242 ), #113, .F. ) ;
#74 = LOCAL_TIME ( 12, 5, 54.00000000000000000, #77 ) ;
#75 = PERSON_AND_ORGANIZATION_ROLE ( 'creator' ) ;
#76 = CIRCLE ( 'NONE', #207, 0.1999999999999996503 ) ;
#77 = COORDINATED_UNIVERSAL_TIME_OFFSET ( 1, 0, .AHEAD. ) ;
#78 = APPLICATION_CONTEXT ( 'configuration controlled 3d designs of mechanical parts and assemblies' ) ;
#79 = CARTESIAN_POINT ( 'NONE',  ( -6.000000000000000888, 0.000000000000000000, 5.000000000000000000 ) ) ;
#80 = LOCAL_TIME ( 12, 5, 54.00000000000000000, #31 ) ;
#81 = ORIENTED_EDGE ( 'NONE', *, *, #304, .T. ) ;
#82 = DIRECTION ( 'NONE',  ( 1.000000000000000000, 0.000000000000000000, 0.000000000000000000 ) ) ;
#83 = DIRECTION ( 'NONE',  ( 1.000000000000000000, 0.000000000000000000, 0.000000000000000000 ) ) ;
#84 = VERTEX_POINT ( 'NONE', #177 ) ;
#85 = CARTESIAN_POINT ( 'NONE',  ( -3.949999999999999734, 4.837354856632044071E-16, 4.999999999999998224 ) ) ;
#86 = CC_DESIGN_PERSON_AND_ORGANIZATION_ASSIGNMENT ( #149, #75, ( #254 ) ) ;
#87 = EDGE_LOOP ( 'NONE', ( #195, #245, #277, #196 ) ) ;
#88 = CC_DESIGN_SECURITY_CLASSIFICATION ( #104, ( #254 ) ) ;
#89 = CARTESIAN_POINT ( 'NONE',  ( -3.949999999999999734, 4.837354856632044071E-16, 5.199999999999996625 ) ) ;
#90 = AXIS2_PLACEMENT_3D ( 'NONE', #261, #284, #48 ) ;
#91 = EDGE_LOOP ( 'NONE', ( #111, #250, #107, #16 ) ) ;
#92 = DIRECTION ( 'NONE',  ( 1.000000000000000000, 0.000000000000000000, 0.000000000000000000 ) ) ;
#93 =( NAMED_UNIT ( * ) PLANE_ANGLE_UNIT ( ) SI_UNIT ( $, .RADIAN. ) );
#94 = DIRECTION ( 'NONE',  ( -1.000000000000000000, 0.000000000000000000, 0.000000000000000000 ) ) ;
#95 = TOROIDAL_SURFACE ( 'NONE', #157, 3.949999999999999734, 0.2000000000000000111 ) ;
#96 = CARTESIAN_POINT ( 'NONE',  ( 0.000000000000000000, 0.000000000000000000, 0.000000000000000000 ) ) ;
#97 = EDGE_CURVE ( 'NONE', #158, #279, #61, .T. ) ;
#98 = APPROVAL_STATUS ( 'not_yet_approved' ) ;
#99 =( NAMED_UNIT ( * ) SI_UNIT ( $, .STERADIAN. ) SOLID_ANGLE_UNIT ( ) );
#100 = APPROVAL_ROLE ( '' ) ;
#101 = CIRCLE ( 'NONE', #20, 3.750000000000000000 ) ;
#102 = COORDINATED_UNIVERSAL_TIME_OFFSET ( 1, 0, .AHEAD. ) ;
#103 = DIRECTION ( 'NONE',  ( 1.000000000000000000, 0.000000000000000000, 0.000000000000000000 ) ) ;
#104 = SECURITY_CLASSIFICATION ( '', '', #24 ) ;
#105 = CARTESIAN_POINT ( 'NONE',  ( 3.750000000000000000, 4.592425496802573972E-16, 5.199999999999996625 ) ) ;
#106 = VERTEX_POINT ( 'NONE', #85 ) ;
#107 = ORIENTED_EDGE ( 'NONE', *, *, #65, .T. ) ;
#108 = EDGE_CURVE ( 'NONE', #158, #295, #121, .T. ) ;
#109 = CARTESIAN_POINT ( 'NONE',  ( 0.000000000000000000, 0.000000000000000000, 105.0000000000000142 ) ) ;
#110 = CARTESIAN_POINT ( 'NONE',  ( 0.000000000000000000, 0.000000000000000000, 5.000000000000000000 ) ) ;
#111 = ORIENTED_EDGE ( 'NONE', *, *, #291, .F. ) ;
#112 = VERTEX_POINT ( 'NONE', #34 ) ;
#113 = TOROIDAL_SURFACE ( 'NONE', #4, 3.949999999999999734, 0.2000000000000000111 ) ;
#114 = DIRECTION ( 'NONE',  ( 1.000000000000000000, 0.000000000000000000, 0.000000000000000000 ) ) ;
#115 = CC_DESIGN_PERSON_AND_ORGANIZATION_ASSIGNMENT ( #240, #6, ( #302 ) ) ;
#116 = AXIS2_PLACEMENT_3D ( 'NONE', #251, #243, #127 ) ;
#117 = CARTESIAN_POINT ( 'NONE',  ( 0.000000000000000000, 0.000000000000000000, 105.0000000000000142 ) ) ;
#118 = DIRECTION ( 'NONE',  ( -0.000000000000000000, -0.000000000000000000, -1.000000000000000000 ) ) ;
#119 = CC_DESIGN_APPROVAL ( #138, ( #254 ) ) ;
#120 = DIRECTION ( 'NONE',  ( 1.000000000000000000, 0.000000000000000000, 0.000000000000000000 ) ) ;
#121 = CIRCLE ( 'NONE', #294, 3.750000000000000000 ) ;
#122 = APPROVAL_STATUS ( 'not_yet_approved' ) ;
#123 = APPROVAL_ROLE ( '' ) ;
#124 = AXIS2_PLACEMENT_3D ( 'NONE', #117, #285, #71 ) ;
#125 = DATE_AND_TIME ( #191, #80 ) ;
#126 = DIRECTION ( 'NONE',  ( 0.000000000000000000, 0.000000000000000000, 1.000000000000000000 ) ) ;
#127 = DIRECTION ( 'NONE',  ( -1.000000000000000000, 0.000000000000000000, 0.000000000000000000 ) ) ;
#128 = ADVANCED_FACE ( 'NONE', ( #153 ), #156, .T. ) ;
#129 = EDGE_LOOP ( 'NONE', ( #63, #255, #219, #37 ) ) ;
#130 = DIRECTION ( 'NONE',  ( 1.000000000000000000, 0.000000000000000000, 0.000000000000000000 ) ) ;
#131 = DIRECTION ( 'NONE',  ( -1.000000000000000000, 1.224646799147353454E-16, 0.000000000000000000 ) ) ;
#132 = VERTEX_POINT ( 'NONE', #13 ) ;
#133 = AXIS2_PLACEMENT_3D ( 'NONE', #221, #292, #296 ) ;
#134 = ORIENTED_EDGE ( 'NONE', *, *, #65, .F. ) ;
#135 = ORIENTED_EDGE ( 'NONE', *, *, #42, .T. ) ;
#136 = APPROVAL_DATE_TIME ( #41, #26 ) ;
#137 = CIRCLE ( 'NONE', #276, 6.000000000000000888 ) ;
#138 = APPROVAL ( #7, 'NEURÈENÝ' ) ;
#139 = CARTESIAN_POINT ( 'NONE',  ( 3.949999999999999734, 0.000000000000000000, 4.999999999999998224 ) ) ;
#140 = SHAPE_DEFINITION_REPRESENTATION ( #204, #25 ) ;
#141 = APPROVAL_PERSON_ORGANIZATION ( #27, #26, #5 ) ;
#142 = CYLINDRICAL_SURFACE ( 'NONE', #179, 6.000000000000000888 ) ;
#143 = AXIS2_PLACEMENT_3D ( 'NONE', #67, #185, #114 ) ;
#144 = LINE ( 'NONE', #187, #269 ) ;
#145 = CARTESIAN_POINT ( 'NONE',  ( 0.000000000000000000, 0.000000000000000000, 5.199999999999996625 ) ) ;
#146 = APPROVAL_DATE_TIME ( #30, #138 ) ;
#147 = PERSON_AND_ORGANIZATION_ROLE ( 'creator' ) ;
#148 = APPLICATION_PROTOCOL_DEFINITION ( 'international standard', 'config_control_design', 1994, #238 ) ;
#149 = PERSON_AND_ORGANIZATION ( #192, #22 ) ;
#150 = CARTESIAN_POINT ( 'NONE',  ( -6.000000000000000888, 0.000000000000000000, 0.000000000000000000 ) ) ;
#151 = EDGE_CURVE ( 'NONE', #84, #132, #32, .T. ) ;
#152 = EDGE_LOOP ( 'NONE', ( #227, #173, #270, #134 ) ) ;
#153 = FACE_OUTER_BOUND ( 'NONE', #129, .T. ) ;
#154 = CARTESIAN_POINT ( 'NONE',  ( 6.000000000000000888, 7.347880794884120722E-16, 0.000000000000000000 ) ) ;
#155 = EDGE_LOOP ( 'NONE', ( #225, #274 ) ) ;
#156 = CYLINDRICAL_SURFACE ( 'NONE', #116, 3.750000000000000000 ) ;
#157 = AXIS2_PLACEMENT_3D ( 'NONE', #283, #307, #259 ) ;
#158 = VERTEX_POINT ( 'NONE', #105 ) ;
#159 = DESIGN_CONTEXT ( 'detailed design', #238, 'design' ) ;
#160 = ORIENTED_EDGE ( 'NONE', *, *, #212, .F. ) ;
#161 = AXIS2_PLACEMENT_3D ( 'NONE', #110, #36, #14 ) ;
#162 = ADVANCED_FACE ( 'NONE', ( #197, #194 ), #271, .T. ) ;
#163 = DIRECTION ( 'NONE',  ( 1.000000000000000000, 0.000000000000000000, -0.000000000000000000 ) ) ;
#164 = DIRECTION ( 'NONE',  ( -1.000000000000000000, 0.000000000000000000, 0.000000000000000000 ) ) ;
#165 = AXIS2_PLACEMENT_3D ( 'NONE', #167, #306, #92 ) ;
#166 = FACE_OUTER_BOUND ( 'NONE', #87, .T. ) ;
#167 = CARTESIAN_POINT ( 'NONE',  ( 0.000000000000000000, 0.000000000000000000, 5.000000000000000000 ) ) ;
#168 = PERSON_AND_ORGANIZATION ( #192, #22 ) ;
#169 = PERSON_AND_ORGANIZATION ( #192, #22 ) ;
#170 = ADVANCED_FACE ( 'NONE', ( #166 ), #95, .F. ) ;
#171 = FACE_OUTER_BOUND ( 'NONE', #40, .T. ) ;
#172 = ADVANCED_FACE ( 'NONE', ( #68 ), #257, .F. ) ;
#173 = ORIENTED_EDGE ( 'NONE', *, *, #291, .T. ) ;
#174 = DIRECTION ( 'NONE',  ( 1.000000000000000000, 0.000000000000000000, 0.000000000000000000 ) ) ;
#175 = DIRECTION ( 'NONE',  ( -0.000000000000000000, -0.000000000000000000, -1.000000000000000000 ) ) ;
#176 = ORIENTED_EDGE ( 'NONE', *, *, #151, .F. ) ;
#177 = CARTESIAN_POINT ( 'NONE',  ( 3.750000000000000000, 4.592425496802573972E-16, 105.0000000000000142 ) ) ;
#178 = DIRECTION ( 'NONE',  ( 1.224646799147353207E-16, 1.000000000000000000, -0.000000000000000000 ) ) ;
#179 = AXIS2_PLACEMENT_3D ( 'NONE', #231, #184, #164 ) ;
#180 = ORIENTED_EDGE ( 'NONE', *, *, #9, .T. ) ;
#181 = EDGE_CURVE ( 'NONE', #295, #158, #101, .T. ) ;
#182 = DIRECTION ( 'NONE',  ( 0.000000000000000000, 0.000000000000000000, 1.000000000000000000 ) ) ;
#183 = DIRECTION ( 'NONE',  ( -0.000000000000000000, -0.000000000000000000, -1.000000000000000000 ) ) ;
#184 = DIRECTION ( 'NONE',  ( -0.000000000000000000, -0.000000000000000000, -1.000000000000000000 ) ) ;
#185 = DIRECTION ( 'NONE',  ( -0.000000000000000000, -0.000000000000000000, -1.000000000000000000 ) ) ;
#186 = CIRCLE ( 'NONE', #124, 3.750000000000000000 ) ;
#187 = CARTESIAN_POINT ( 'NONE',  ( -3.750000000000000000, 0.000000000000000000, 105.0000000000000142 ) ) ;
#188 = CC_DESIGN_PERSON_AND_ORGANIZATION_ASSIGNMENT ( #210, #147, ( #303 ) ) ;
#189 = COORDINATED_UNIVERSAL_TIME_OFFSET ( 1, 0, .AHEAD. ) ;
#190 = CIRCLE ( 'NONE', #143, 3.949999999999999734 ) ;
#191 = CALENDAR_DATE ( 2022, 7, 7 ) ;
#192 = PERSON ( 'NEURÈENÝ', 'NEURÈENÝ', 'NEURÈENÝ', ('NEURÈENÝ'), ('NEURÈENÝ'), ('NEURÈENÝ') ) ;
#193 = LINE ( 'NONE', #79, #241 ) ;
#194 = FACE_OUTER_BOUND ( 'NONE', #155, .T. ) ;
#195 = ORIENTED_EDGE ( 'NONE', *, *, #9, .F. ) ;
#196 = ORIENTED_EDGE ( 'NONE', *, *, #304, .F. ) ;
#197 = FACE_BOUND ( 'NONE', #56, .T. ) ;
#198 = CARTESIAN_POINT ( 'NONE',  ( 0.000000000000000000, 0.000000000000000000, 0.000000000000000000 ) ) ;
#199 = ORIENTED_EDGE ( 'NONE', *, *, #97, .F. ) ;
#200 = ORIENTED_EDGE ( 'NONE', *, *, #301, .T. ) ;
#201 = CIRCLE ( 'NONE', #38, 6.000000000000000888 ) ;
#202 = EDGE_CURVE ( 'NONE', #279, #106, #190, .T. ) ;
#203 = AXIS2_PLACEMENT_3D ( 'NONE', #267, #289, #213 ) ;
#204 = PRODUCT_DEFINITION_SHAPE ( 'NONE', 'NONE',  #303 ) ;
#205 = LOCAL_TIME ( 12, 5, 54.00000000000000000, #102 ) ;
#206 = CARTESIAN_POINT ( 'NONE',  ( 0.000000000000000000, 0.000000000000000000, 0.000000000000000000 ) ) ;
#207 = AXIS2_PLACEMENT_3D ( 'NONE', #89, #178, #131 ) ;
#208 = DIRECTION ( 'NONE',  ( 0.000000000000000000, 0.000000000000000000, 1.000000000000000000 ) ) ;
#209 = CARTESIAN_POINT ( 'NONE',  ( -3.750000000000000000, 0.000000000000000000, 5.199999999999996625 ) ) ;
#210 = PERSON_AND_ORGANIZATION ( #192, #22 ) ;
#211 = VECTOR ( 'NONE', #175, 1000.000000000000000 ) ;
#212 = EDGE_CURVE ( 'NONE', #132, #295, #144, .T. ) ;
#213 = DIRECTION ( 'NONE',  ( 1.000000000000000000, 0.000000000000000000, 0.000000000000000000 ) ) ;
#214 = MECHANICAL_CONTEXT ( 'NONE', #78, 'mechanical' ) ;
#215 = CC_DESIGN_APPROVAL ( #26, ( #104 ) ) ;
#216 = CIRCLE ( 'NONE', #90, 6.000000000000000888 ) ;
#217 = DIRECTION ( 'NONE',  ( 0.000000000000000000, 0.000000000000000000, 1.000000000000000000 ) ) ;
#218 = DIRECTION ( 'NONE',  ( 0.000000000000000000, 0.000000000000000000, 1.000000000000000000 ) ) ;
#219 = ORIENTED_EDGE ( 'NONE', *, *, #212, .T. ) ;
#220 = ORIENTED_EDGE ( 'NONE', *, *, #18, .F. ) ;
#221 = CARTESIAN_POINT ( 'NONE',  ( 3.949999999999999734, 0.000000000000000000, 5.199999999999996625 ) ) ;
#222 = CARTESIAN_POINT ( 'NONE',  ( 3.750000000000000000, 4.592425496802573972E-16, 105.0000000000000142 ) ) ;
#223 = EDGE_LOOP ( 'NONE', ( #35, #220 ) ) ;
#224 = CC_DESIGN_DATE_AND_TIME_ASSIGNMENT ( #125, #234, ( #303 ) ) ;
#225 = ORIENTED_EDGE ( 'NONE', *, *, #62, .T. ) ;
#226 = ADVANCED_FACE ( 'NONE', ( #45 ), #142, .T. ) ;
#227 = ORIENTED_EDGE ( 'NONE', *, *, #272, .F. ) ;
#228 = CIRCLE ( 'NONE', #252, 6.000000000000000888 ) ;
#229 = DIRECTION ( 'NONE',  ( -0.000000000000000000, -0.000000000000000000, -1.000000000000000000 ) ) ;
#230 = AXIS2_PLACEMENT_3D ( 'NONE', #96, #182, #2 ) ;
#231 = CARTESIAN_POINT ( 'NONE',  ( 0.000000000000000000, 0.000000000000000000, 5.000000000000000000 ) ) ;
#232 = CARTESIAN_POINT ( 'NONE',  ( 6.000000000000000888, 7.347880794884120722E-16, 5.000000000000000000 ) ) ;
#233 = LOCAL_TIME ( 12, 5, 54.00000000000000000, #286 ) ;
#234 = DATE_TIME_ROLE ( 'creation_date' ) ;
#235 = EDGE_CURVE ( 'NONE', #64, #11, #137, .T. ) ;
#236 = DATE_AND_TIME ( #49, #205 ) ;
#237 = PERSON_AND_ORGANIZATION ( #192, #22 ) ;
#238 = APPLICATION_CONTEXT ( 'configuration controlled 3d designs of mechanical parts and assemblies' ) ;
#239 = PERSON_AND_ORGANIZATION_ROLE ( 'design_supplier' ) ;
#240 = PERSON_AND_ORGANIZATION ( #192, #22 ) ;
#241 = VECTOR ( 'NONE', #33, 1000.000000000000000 ) ;
#242 = FACE_OUTER_BOUND ( 'NONE', #59, .T. ) ;
#243 = DIRECTION ( 'NONE',  ( -0.000000000000000000, -0.000000000000000000, -1.000000000000000000 ) ) ;
#244 = PRODUCT_RELATED_PRODUCT_CATEGORY ( 'detail', '', ( #302 ) ) ;
#245 = ORIENTED_EDGE ( 'NONE', *, *, #108, .F. ) ;
#246 = CARTESIAN_POINT ( 'NONE',  ( 0.000000000000000000, 0.000000000000000000, 5.199999999999996625 ) ) ;
#247 = CC_DESIGN_APPROVAL ( #249, ( #303 ) ) ;
#248 = DIRECTION ( 'NONE',  ( 0.000000000000000000, 0.000000000000000000, 1.000000000000000000 ) ) ;
#249 = APPROVAL ( #98, 'NEURÈENÝ' ) ;
#250 = ORIENTED_EDGE ( 'NONE', *, *, #62, .F. ) ;
#251 = CARTESIAN_POINT ( 'NONE',  ( 0.000000000000000000, 0.000000000000000000, 105.0000000000000142 ) ) ;
#252 = AXIS2_PLACEMENT_3D ( 'NONE', #8, #126, #103 ) ;
#253 = ORIENTED_EDGE ( 'NONE', *, *, #181, .F. ) ;
#254 = PRODUCT_DEFINITION_FORMATION_WITH_SPECIFIED_SOURCE ( 'LIBOVOLNÝ', '', #302, .NOT_KNOWN. ) ;
#255 = ORIENTED_EDGE ( 'NONE', *, *, #301, .F. ) ;
#256 = AXIS2_PLACEMENT_3D ( 'NONE', #268, #217, #54 ) ;
#257 = PLANE ( 'NONE',  #230 ) ;
#258 =( LENGTH_UNIT ( ) NAMED_UNIT ( * ) SI_UNIT ( .MILLI., .METRE. ) );
#259 = DIRECTION ( 'NONE',  ( 1.000000000000000000, 0.000000000000000000, 0.000000000000000000 ) ) ;
#260 = VECTOR ( 'NONE', #229, 1000.000000000000000 ) ;
#261 = CARTESIAN_POINT ( 'NONE',  ( 0.000000000000000000, 0.000000000000000000, 5.000000000000000000 ) ) ;
#262 = ADVANCED_FACE ( 'NONE', ( #1 ), #44, .T. ) ;
#263 = PERSON_AND_ORGANIZATION_ROLE ( 'classification_officer' ) ;
#264 = LOCAL_TIME ( 12, 5, 54.00000000000000000, #189 ) ;
#265 = AXIS2_PLACEMENT_3D ( 'NONE', #109, #10, #174 ) ;
#266 = DATE_AND_TIME ( #52, #74 ) ;
#267 = CARTESIAN_POINT ( 'NONE',  ( 0.000000000000000000, 0.000000000000000000, 0.000000000000000000 ) ) ;
#268 = CARTESIAN_POINT ( 'NONE',  ( 0.000000000000000000, 0.000000000000000000, 105.0000000000000142 ) ) ;
#269 = VECTOR ( 'NONE', #118, 1000.000000000000000 ) ;
#270 = ORIENTED_EDGE ( 'NONE', *, *, #18, .T. ) ;
#271 = PLANE ( 'NONE',  #305 ) ;
#272 = EDGE_CURVE ( 'NONE', #112, #300, #216, .T. ) ;
#273 = LINE ( 'NONE', #222, #211 ) ;
#274 = ORIENTED_EDGE ( 'NONE', *, *, #272, .T. ) ;
#275 = CARTESIAN_POINT ( 'NONE',  ( 0.000000000000000000, 0.000000000000000000, 5.199999999999996625 ) ) ;
#276 = AXIS2_PLACEMENT_3D ( 'NONE', #206, #47, #120 ) ;
#277 = ORIENTED_EDGE ( 'NONE', *, *, #97, .T. ) ;
#278 = UNCERTAINTY_MEASURE_WITH_UNIT (LENGTH_MEASURE( 1.000000000000000082E-05 ), #258, 'distance_accuracy_value', 'NONE');
#279 = VERTEX_POINT ( 'NONE', #139 ) ;
#280 = APPROVAL_PERSON_ORGANIZATION ( #3, #138, #123 ) ;
#281 = CC_DESIGN_PERSON_AND_ORGANIZATION_ASSIGNMENT ( #168, #239, ( #254 ) ) ;
#282 = LINE ( 'NONE', #232, #260 ) ;
#283 = CARTESIAN_POINT ( 'NONE',  ( 0.000000000000000000, 0.000000000000000000, 5.199999999999996625 ) ) ;
#284 = DIRECTION ( 'NONE',  ( 0.000000000000000000, 0.000000000000000000, 1.000000000000000000 ) ) ;
#285 = DIRECTION ( 'NONE',  ( 0.000000000000000000, 0.000000000000000000, 1.000000000000000000 ) ) ;
#286 = COORDINATED_UNIVERSAL_TIME_OFFSET ( 1, 0, .AHEAD. ) ;
#287 = APPLICATION_PROTOCOL_DEFINITION ( 'international standard', 'config_control_design', 1994, #78 ) ;
#288 = CALENDAR_DATE ( 2022, 7, 7 ) ;
#289 = DIRECTION ( 'NONE',  ( 0.000000000000000000, 0.000000000000000000, 1.000000000000000000 ) ) ;
#290 = PLANE ( 'NONE',  #256 ) ;
#291 = EDGE_CURVE ( 'NONE', #112, #11, #282, .T. ) ;
#292 = DIRECTION ( 'NONE',  ( 0.000000000000000000, -1.000000000000000000, 0.000000000000000000 ) ) ;
#293 = ORIENTED_EDGE ( 'NONE', *, *, #151, .T. ) ;
#294 = AXIS2_PLACEMENT_3D ( 'NONE', #275, #60, #82 ) ;
#295 = VERTEX_POINT ( 'NONE', #209 ) ;
#296 = DIRECTION ( 'NONE',  ( 0.000000000000000000, 0.000000000000000000, -1.000000000000000000 ) ) ;
#297 = FACE_OUTER_BOUND ( 'NONE', #152, .T. ) ;
#298 = ORIENTED_EDGE ( 'NONE', *, *, #202, .F. ) ;
#299 = AXIS2_PLACEMENT_3D ( 'NONE', #70, #183, #94 ) ;
#300 = VERTEX_POINT ( 'NONE', #23 ) ;
#301 = EDGE_CURVE ( 'NONE', #132, #84, #186, .T. ) ;
#302 = PRODUCT ( '79ed', '79ed', '', ( #214 ) ) ;
#303 = PRODUCT_DEFINITION ( 'NEZNÁMÝ', '', #254, #159 ) ;
#304 = EDGE_CURVE ( 'NONE', #106, #279, #69, .T. ) ;
#305 = AXIS2_PLACEMENT_3D ( 'NONE', #57, #21, #163 ) ;
#306 = DIRECTION ( 'NONE',  ( -0.000000000000000000, -0.000000000000000000, -1.000000000000000000 ) ) ;
#307 = DIRECTION ( 'NONE',  ( 0.000000000000000000, 0.000000000000000000, 1.000000000000000000 ) ) ;
ENDSEC;
END-ISO-10303-21;
