ISO-10303-21;
HEADER;
FILE_DESCRIPTION (( 'STEP AP203' ),
    '1' );
FILE_NAME ('ceb3.STEP',
    '2022-07-07T09:33:55',
    ( '' ),
    ( '' ),
    'SwSTEP 2.0',
    'SolidWorks 2019',
    '' );
FILE_SCHEMA (( 'CONFIG_CONTROL_DESIGN' ));
ENDSEC;

DATA;
#1 = LINE ( 'NONE', #242, #254 ) ;
#2 = FACE_OUTER_BOUND ( 'NONE', #213, .T. ) ;
#3 = LOCAL_TIME ( 11, 33, 55.00000000000000000, #60 ) ;
#4 = DIRECTION ( 'NONE',  ( -0.000000000000000000, -0.000000000000000000, -1.000000000000000000 ) ) ;
#5 = DATE_AND_TIME ( #246, #223 ) ;
#6 = CIRCLE ( 'NONE', #142, 10.20000000000000107 ) ;
#7 = ORIENTED_EDGE ( 'NONE', *, *, #83, .F. ) ;
#8 = CARTESIAN_POINT ( 'NONE',  ( 0.000000000000000000, 0.000000000000000000, 0.000000000000000000 ) ) ;
#9 = ORIENTED_EDGE ( 'NONE', *, *, #71, .F. ) ;
#10 = COORDINATED_UNIVERSAL_TIME_OFFSET ( 1, 0, .AHEAD. ) ;
#11 = VERTEX_POINT ( 'NONE', #93 ) ;
#12 = CIRCLE ( 'NONE', #99, 10.00000000000000000 ) ;
#13 = EDGE_CURVE ( 'NONE', #61, #275, #200, .T. ) ;
#14 = SHAPE_DEFINITION_REPRESENTATION ( #86, #205 ) ;
#15 = ORIENTED_EDGE ( 'NONE', *, *, #180, .F. ) ;
#16 = DIRECTION ( 'NONE',  ( 1.000000000000000000, 0.000000000000000000, 0.000000000000000000 ) ) ;
#17 = CIRCLE ( 'NONE', #110, 10.00000000000000000 ) ;
#18 = CARTESIAN_POINT ( 'NONE',  ( -13.00000000000000178, 0.000000000000000000, 0.000000000000000000 ) ) ;
#19 = EDGE_LOOP ( 'NONE', ( #116, #251, #166, #256 ) ) ;
#20 = CARTESIAN_POINT ( 'NONE',  ( 0.000000000000000000, 0.000000000000000000, 8.199999999999985079 ) ) ;
#21 = LOCAL_TIME ( 11, 33, 55.00000000000000000, #103 ) ;
#22 = EDGE_CURVE ( 'NONE', #236, #215, #37, .T. ) ;
#23 = DIRECTION ( 'NONE',  ( 1.000000000000000000, 0.000000000000000000, 0.000000000000000000 ) ) ;
#24 = CARTESIAN_POINT ( 'NONE',  ( 0.000000000000000000, 0.000000000000000000, 408.0000000000000568 ) ) ;
#25 = DIRECTION ( 'NONE',  ( -0.000000000000000000, -0.000000000000000000, -1.000000000000000000 ) ) ;
#26 = EDGE_CURVE ( 'NONE', #11, #215, #277, .T. ) ;
#27 = VECTOR ( 'NONE', #139, 1000.000000000000000 ) ;
#28 = CARTESIAN_POINT ( 'NONE',  ( -10.20000000000000107, 1.249139735130300365E-15, 7.999999999999992895 ) ) ;
#29 = DATE_TIME_ROLE ( 'creation_date' ) ;
#30 = PERSON_AND_ORGANIZATION ( #151, #195 ) ;
#31 = AXIS2_PLACEMENT_3D ( 'NONE', #90, #232, #16 ) ;
#32 = PERSON_AND_ORGANIZATION ( #151, #195 ) ;
#33 = EDGE_LOOP ( 'NONE', ( #7, #9, #68, #226 ) ) ;
#34 = VERTEX_POINT ( 'NONE', #284 ) ;
#35 = ADVANCED_FACE ( 'NONE', ( #64 ), #39, .T. ) ;
#36 = APPROVAL_DATE_TIME ( #253, #74 ) ;
#37 = CIRCLE ( 'NONE', #65, 10.00000000000000000 ) ;
#38 = APPROVAL_PERSON_ORGANIZATION ( #32, #74, #229 ) ;
#39 = CYLINDRICAL_SURFACE ( 'NONE', #147, 13.00000000000000178 ) ;
#40 = DIRECTION ( 'NONE',  ( -0.000000000000000000, -0.000000000000000000, -1.000000000000000000 ) ) ;
#41 = ORIENTED_EDGE ( 'NONE', *, *, #83, .T. ) ;
#42 = LINE ( 'NONE', #169, #27 ) ;
#43 = VERTEX_POINT ( 'NONE', #231 ) ;
#44 = PRODUCT_RELATED_PRODUCT_CATEGORY ( 'detail', '', ( #49 ) ) ;
#45 = CARTESIAN_POINT ( 'NONE',  ( -10.00000000000000000, 0.000000000000000000, 8.199999999999985079 ) ) ;
#46 = CLOSED_SHELL ( 'NONE', ( #202, #149, #119, #35, #216, #129, #208, #175, #51 ) ) ;
#47 = LOCAL_TIME ( 11, 33, 55.00000000000000000, #248 ) ;
#48 = DIRECTION ( 'NONE',  ( 1.000000000000000000, 0.000000000000000000, -0.000000000000000000 ) ) ;
#49 = PRODUCT ( 'ceb3', 'ceb3', '', ( #276 ) ) ;
#50 = DIRECTION ( 'NONE',  ( 0.000000000000000000, 0.000000000000000000, 1.000000000000000000 ) ) ;
#51 = ADVANCED_FACE ( 'NONE', ( #115 ), #259, .F. ) ;
#52 = DIRECTION ( 'NONE',  ( 1.224646799147353207E-16, 1.000000000000000000, -0.000000000000000000 ) ) ;
#53 = DIRECTION ( 'NONE',  ( 0.000000000000000000, 0.000000000000000000, 1.000000000000000000 ) ) ;
#54 = DATE_AND_TIME ( #106, #21 ) ;
#55 = CC_DESIGN_PERSON_AND_ORGANIZATION_ASSIGNMENT ( #30, #269, ( #278 ) ) ;
#56 = PERSON_AND_ORGANIZATION_ROLE ( 'classification_officer' ) ;
#57 = CALENDAR_DATE ( 2022, 7, 7 ) ;
#58 = APPROVAL_PERSON_ORGANIZATION ( #206, #165, #271 ) ;
#59 = ORIENTED_EDGE ( 'NONE', *, *, #92, .T. ) ;
#60 = COORDINATED_UNIVERSAL_TIME_OFFSET ( 1, 0, .AHEAD. ) ;
#61 = VERTEX_POINT ( 'NONE', #18 ) ;
#62 = DIRECTION ( 'NONE',  ( 1.000000000000000000, 0.000000000000000000, 0.000000000000000000 ) ) ;
#63 = ORIENTED_EDGE ( 'NONE', *, *, #136, .T. ) ;
#64 = FACE_OUTER_BOUND ( 'NONE', #164, .T. ) ;
#65 = AXIS2_PLACEMENT_3D ( 'NONE', #190, #260, #186 ) ;
#66 = EDGE_LOOP ( 'NONE', ( #67, #109 ) ) ;
#67 = ORIENTED_EDGE ( 'NONE', *, *, #302, .T. ) ;
#68 = ORIENTED_EDGE ( 'NONE', *, *, #26, .T. ) ;
#69 = CIRCLE ( 'NONE', #283, 13.00000000000000178 ) ;
#70 = DIRECTION ( 'NONE',  ( -0.000000000000000000, -0.000000000000000000, -1.000000000000000000 ) ) ;
#71 = EDGE_CURVE ( 'NONE', #11, #159, #170, .T. ) ;
#72 = DIRECTION ( 'NONE',  ( 1.000000000000000000, 0.000000000000000000, -0.000000000000000000 ) ) ;
#73 = PLANE ( 'NONE',  #282 ) ;
#74 = APPROVAL ( #135, 'NEURÈENÝ' ) ;
#75 = DIRECTION ( 'NONE',  ( -0.000000000000000000, -0.000000000000000000, -1.000000000000000000 ) ) ;
#76 = CARTESIAN_POINT ( 'NONE',  ( 0.000000000000000000, 0.000000000000000000, 0.000000000000000000 ) ) ;
#77 = CARTESIAN_POINT ( 'NONE',  ( 13.00000000000000178, 1.592040838891559293E-15, 0.000000000000000000 ) ) ;
#78 = APPROVAL_ROLE ( '' ) ;
#79 = CC_DESIGN_DATE_AND_TIME_ASSIGNMENT ( #82, #250, ( #187 ) ) ;
#80 = PERSON_AND_ORGANIZATION_ROLE ( 'creator' ) ;
#81 = EDGE_LOOP ( 'NONE', ( #91, #238, #257, #15 ) ) ;
#82 = DATE_AND_TIME ( #57, #47 ) ;
#83 = EDGE_CURVE ( 'NONE', #159, #236, #42, .T. ) ;
#84 =( LENGTH_UNIT ( ) NAMED_UNIT ( * ) SI_UNIT ( .MILLI., .METRE. ) );
#85 = ORIENTED_EDGE ( 'NONE', *, *, #154, .T. ) ;
#86 = PRODUCT_DEFINITION_SHAPE ( 'NONE', 'NONE',  #196 ) ;
#87 = APPROVAL_DATE_TIME ( #133, #165 ) ;
#88 = EDGE_LOOP ( 'NONE', ( #191, #85 ) ) ;
#89 = DIRECTION ( 'NONE',  ( 1.000000000000000000, 0.000000000000000000, 0.000000000000000000 ) ) ;
#90 = CARTESIAN_POINT ( 'NONE',  ( 0.000000000000000000, 0.000000000000000000, 8.000000000000000000 ) ) ;
#91 = ORIENTED_EDGE ( 'NONE', *, *, #261, .F. ) ;
#92 = EDGE_CURVE ( 'NONE', #34, #184, #233, .T. ) ;
#93 = CARTESIAN_POINT ( 'NONE',  ( -10.00000000000000000, 0.000000000000000000, 408.0000000000000568 ) ) ;
#94 = AXIS2_PLACEMENT_3D ( 'NONE', #188, #144, #141 ) ;
#95 = LOCAL_TIME ( 11, 33, 55.00000000000000000, #10 ) ;
#96 = DIRECTION ( 'NONE',  ( 0.000000000000000000, 0.000000000000000000, 1.000000000000000000 ) ) ;
#97 = FACE_OUTER_BOUND ( 'NONE', #173, .T. ) ;
#98 = DIRECTION ( 'NONE',  ( 1.000000000000000000, 0.000000000000000000, 0.000000000000000000 ) ) ;
#99 = AXIS2_PLACEMENT_3D ( 'NONE', #20, #50, #197 ) ;
#100 = AXIS2_PLACEMENT_3D ( 'NONE', #306, #241, #263 ) ;
#101 = CYLINDRICAL_SURFACE ( 'NONE', #100, 10.00000000000000000 ) ;
#102 = DIRECTION ( 'NONE',  ( 0.000000000000000000, 0.000000000000000000, 1.000000000000000000 ) ) ;
#103 = COORDINATED_UNIVERSAL_TIME_OFFSET ( 1, 0, .AHEAD. ) ;
#104 = CC_DESIGN_PERSON_AND_ORGANIZATION_ASSIGNMENT ( #294, #201, ( #278 ) ) ;
#105 =( GEOMETRIC_REPRESENTATION_CONTEXT ( 3 ) GLOBAL_UNCERTAINTY_ASSIGNED_CONTEXT ( ( #161 ) ) GLOBAL_UNIT_ASSIGNED_CONTEXT ( ( #84, #158, #160 ) ) REPRESENTATION_CONTEXT ( 'NONE', 'WORKASPACE' ) );
#106 = CALENDAR_DATE ( 2022, 7, 7 ) ;
#107 = CC_DESIGN_PERSON_AND_ORGANIZATION_ASSIGNMENT ( #270, #56, ( #187 ) ) ;
#108 = CALENDAR_DATE ( 2022, 7, 7 ) ;
#109 = ORIENTED_EDGE ( 'NONE', *, *, #180, .T. ) ;
#110 = AXIS2_PLACEMENT_3D ( 'NONE', #176, #174, #146 ) ;
#111 = APPLICATION_PROTOCOL_DEFINITION ( 'international standard', 'config_control_design', 1994, #220 ) ;
#112 = APPROVAL_PERSON_ORGANIZATION ( #130, #245, #78 ) ;
#113 = ORIENTED_EDGE ( 'NONE', *, *, #185, .F. ) ;
#114 = ORIENTED_EDGE ( 'NONE', *, *, #302, .F. ) ;
#115 = FACE_OUTER_BOUND ( 'NONE', #81, .T. ) ;
#116 = ORIENTED_EDGE ( 'NONE', *, *, #136, .F. ) ;
#117 = CIRCLE ( 'NONE', #287, 13.00000000000000178 ) ;
#118 = DIRECTION ( 'NONE',  ( -0.000000000000000000, -0.000000000000000000, -1.000000000000000000 ) ) ;
#119 = ADVANCED_FACE ( 'NONE', ( #189 ), #280, .T. ) ;
#120 = ORIENTED_EDGE ( 'NONE', *, *, #22, .T. ) ;
#121 = FACE_OUTER_BOUND ( 'NONE', #33, .T. ) ;
#122 = TOROIDAL_SURFACE ( 'NONE', #234, 10.20000000000000107, 0.2000000000000000111 ) ;
#123 = CC_DESIGN_APPROVAL ( #245, ( #278 ) ) ;
#124 = CARTESIAN_POINT ( 'NONE',  ( 10.00000000000000000, 1.224646799147353256E-15, 8.199999999999985079 ) ) ;
#125 = DIRECTION ( 'NONE',  ( -1.000000000000000000, 0.000000000000000000, 0.000000000000000000 ) ) ;
#126 = CARTESIAN_POINT ( 'NONE',  ( 10.00000000000000000, 1.224646799147353256E-15, 408.0000000000000568 ) ) ;
#127 = VECTOR ( 'NONE', #75, 1000.000000000000000 ) ;
#128 = DIRECTION ( 'NONE',  ( 0.000000000000000000, -1.000000000000000000, 0.000000000000000000 ) ) ;
#129 = ADVANCED_FACE ( 'NONE', ( #281 ), #171, .F. ) ;
#130 = PERSON_AND_ORGANIZATION ( #151, #195 ) ;
#131 = ORIENTED_EDGE ( 'NONE', *, *, #230, .F. ) ;
#132 = AXIS2_PLACEMENT_3D ( 'NONE', #167, #279, #145 ) ;
#133 = DATE_AND_TIME ( #209, #3 ) ;
#134 = CC_DESIGN_PERSON_AND_ORGANIZATION_ASSIGNMENT ( #228, #80, ( #196 ) ) ;
#135 = APPROVAL_STATUS ( 'not_yet_approved' ) ;
#136 = EDGE_CURVE ( 'NONE', #184, #34, #117, .T. ) ;
#137 = APPLICATION_CONTEXT ( 'configuration controlled 3d designs of mechanical parts and assemblies' ) ;
#138 = DIRECTION ( 'NONE',  ( -1.000000000000000000, 0.000000000000000000, 0.000000000000000000 ) ) ;
#139 = DIRECTION ( 'NONE',  ( -0.000000000000000000, -0.000000000000000000, -1.000000000000000000 ) ) ;
#140 = MANIFOLD_SOLID_BREP ( 'Zaoblit1', #46 ) ;
#141 = DIRECTION ( 'NONE',  ( 1.000000000000000000, 0.000000000000000000, 0.000000000000000000 ) ) ;
#142 = AXIS2_PLACEMENT_3D ( 'NONE', #181, #224, #163 ) ;
#143 = CIRCLE ( 'NONE', #300, 0.2000000000000005107 ) ;
#144 = DIRECTION ( 'NONE',  ( 0.000000000000000000, 0.000000000000000000, 1.000000000000000000 ) ) ;
#145 = DIRECTION ( 'NONE',  ( 1.000000000000000000, 0.000000000000000000, 0.000000000000000000 ) ) ;
#146 = DIRECTION ( 'NONE',  ( 1.000000000000000000, 0.000000000000000000, 0.000000000000000000 ) ) ;
#147 = AXIS2_PLACEMENT_3D ( 'NONE', #235, #70, #138 ) ;
#148 = CIRCLE ( 'NONE', #156, 0.2000000000000005107 ) ;
#149 = ADVANCED_FACE ( 'NONE', ( #97 ), #240, .T. ) ;
#150 = DIRECTION ( 'NONE',  ( 1.000000000000000000, 0.000000000000000000, 0.000000000000000000 ) ) ;
#151 = PERSON ( 'NEURÈENÝ', 'NEURÈENÝ', 'NEURÈENÝ', ('NEURÈENÝ'), ('NEURÈENÝ'), ('NEURÈENÝ') ) ;
#152 = CARTESIAN_POINT ( 'NONE',  ( 0.000000000000000000, 0.000000000000000000, 8.199999999999985079 ) ) ;
#153 = DIRECTION ( 'NONE',  ( -1.000000000000000000, 1.224646799147353207E-16, 0.000000000000000000 ) ) ;
#154 = EDGE_CURVE ( 'NONE', #159, #11, #17, .T. ) ;
#155 = CIRCLE ( 'NONE', #305, 10.20000000000000107 ) ;
#156 = AXIS2_PLACEMENT_3D ( 'NONE', #178, #52, #153 ) ;
#157 = DIRECTION ( 'NONE',  ( 1.000000000000000000, 0.000000000000000000, 0.000000000000000000 ) ) ;
#158 =( NAMED_UNIT ( * ) PLANE_ANGLE_UNIT ( ) SI_UNIT ( $, .RADIAN. ) );
#159 = VERTEX_POINT ( 'NONE', #126 ) ;
#160 =( NAMED_UNIT ( * ) SI_UNIT ( $, .STERADIAN. ) SOLID_ANGLE_UNIT ( ) );
#161 = UNCERTAINTY_MEASURE_WITH_UNIT (LENGTH_MEASURE( 1.000000000000000082E-05 ), #84, 'distance_accuracy_value', 'NONE');
#162 = DIRECTION ( 'NONE',  ( 0.000000000000000000, 0.000000000000000000, 1.000000000000000000 ) ) ;
#163 = DIRECTION ( 'NONE',  ( 1.000000000000000000, 0.000000000000000000, 0.000000000000000000 ) ) ;
#164 = EDGE_LOOP ( 'NONE', ( #113, #210, #272, #211 ) ) ;
#165 = APPROVAL ( #296, 'NEURÈENÝ' ) ;
#166 = ORIENTED_EDGE ( 'NONE', *, *, #230, .T. ) ;
#167 = CARTESIAN_POINT ( 'NONE',  ( 0.000000000000000000, 0.000000000000000000, 0.000000000000000000 ) ) ;
#168 = EDGE_CURVE ( 'NONE', #215, #236, #12, .T. ) ;
#169 = CARTESIAN_POINT ( 'NONE',  ( 10.00000000000000000, 1.224646799147353256E-15, 408.0000000000000568 ) ) ;
#170 = CIRCLE ( 'NONE', #94, 10.00000000000000000 ) ;
#171 = PLANE ( 'NONE',  #212 ) ;
#172 = CC_DESIGN_APPROVAL ( #74, ( #187 ) ) ;
#173 = EDGE_LOOP ( 'NONE', ( #304, #41, #120, #207 ) ) ;
#174 = DIRECTION ( 'NONE',  ( 0.000000000000000000, 0.000000000000000000, 1.000000000000000000 ) ) ;
#175 = ADVANCED_FACE ( 'NONE', ( #218 ), #73, .T. ) ;
#176 = CARTESIAN_POINT ( 'NONE',  ( 0.000000000000000000, 0.000000000000000000, 408.0000000000000568 ) ) ;
#177 = AXIS2_PLACEMENT_3D ( 'NONE', #301, #299, #89 ) ;
#178 = CARTESIAN_POINT ( 'NONE',  ( -10.20000000000000107, 1.249139735130300365E-15, 8.199999999999985079 ) ) ;
#179 = DIRECTION ( 'NONE',  ( 0.000000000000000000, 0.000000000000000000, 1.000000000000000000 ) ) ;
#180 = EDGE_CURVE ( 'NONE', #262, #43, #155, .T. ) ;
#181 = CARTESIAN_POINT ( 'NONE',  ( 0.000000000000000000, 0.000000000000000000, 8.000000000000000000 ) ) ;
#182 = SECURITY_CLASSIFICATION_LEVEL ( 'unclassified' ) ;
#183 = DESIGN_CONTEXT ( 'detailed design', #220, 'design' ) ;
#184 = VERTEX_POINT ( 'NONE', #221 ) ;
#185 = EDGE_CURVE ( 'NONE', #184, #275, #1, .T. ) ;
#186 = DIRECTION ( 'NONE',  ( 1.000000000000000000, 0.000000000000000000, 0.000000000000000000 ) ) ;
#187 = SECURITY_CLASSIFICATION ( '', '', #182 ) ;
#188 = CARTESIAN_POINT ( 'NONE',  ( 0.000000000000000000, 0.000000000000000000, 408.0000000000000568 ) ) ;
#189 = FACE_OUTER_BOUND ( 'NONE', #19, .T. ) ;
#190 = CARTESIAN_POINT ( 'NONE',  ( 0.000000000000000000, 0.000000000000000000, 8.199999999999985079 ) ) ;
#191 = ORIENTED_EDGE ( 'NONE', *, *, #71, .T. ) ;
#192 = DIRECTION ( 'NONE',  ( 0.000000000000000000, 0.000000000000000000, 1.000000000000000000 ) ) ;
#193 = DIRECTION ( 'NONE',  ( 0.000000000000000000, 0.000000000000000000, -1.000000000000000000 ) ) ;
#194 = FACE_BOUND ( 'NONE', #66, .T. ) ;
#195 = ORGANIZATION ( 'NEURÈENÝ', 'NEURÈENÝ', '' ) ;
#196 = PRODUCT_DEFINITION ( 'NEZNÁMÝ', '', #278, #183 ) ;
#197 = DIRECTION ( 'NONE',  ( 1.000000000000000000, 0.000000000000000000, 0.000000000000000000 ) ) ;
#198 = CARTESIAN_POINT ( 'NONE',  ( -13.00000000000000178, 0.000000000000000000, 8.000000000000000000 ) ) ;
#199 = APPROVAL_DATE_TIME ( #54, #245 ) ;
#200 = CIRCLE ( 'NONE', #132, 13.00000000000000178 ) ;
#201 = PERSON_AND_ORGANIZATION_ROLE ( 'creator' ) ;
#202 = ADVANCED_FACE ( 'NONE', ( #2 ), #122, .F. ) ;
#203 = COORDINATED_UNIVERSAL_TIME_OFFSET ( 1, 0, .AHEAD. ) ;
#204 = ORIENTED_EDGE ( 'NONE', *, *, #13, .F. ) ;
#205 = ADVANCED_BREP_SHAPE_REPRESENTATION ( 'ceb3', ( #140, #255 ), #105 ) ;
#206 = PERSON_AND_ORGANIZATION ( #151, #195 ) ;
#207 = ORIENTED_EDGE ( 'NONE', *, *, #26, .F. ) ;
#208 = ADVANCED_FACE ( 'NONE', ( #121 ), #101, .T. ) ;
#209 = CALENDAR_DATE ( 2022, 7, 7 ) ;
#210 = ORIENTED_EDGE ( 'NONE', *, *, #92, .F. ) ;
#211 = ORIENTED_EDGE ( 'NONE', *, *, #13, .T. ) ;
#212 = AXIS2_PLACEMENT_3D ( 'NONE', #286, #102, #72 ) ;
#213 = EDGE_LOOP ( 'NONE', ( #293, #298, #114, #295 ) ) ;
#214 = CARTESIAN_POINT ( 'NONE',  ( -10.00000000000000000, 0.000000000000000000, 408.0000000000000568 ) ) ;
#215 = VERTEX_POINT ( 'NONE', #45 ) ;
#216 = ADVANCED_FACE ( 'NONE', ( #194, #239 ), #288, .T. ) ;
#217 = VECTOR ( 'NONE', #40, 1000.000000000000000 ) ;
#218 = FACE_OUTER_BOUND ( 'NONE', #88, .T. ) ;
#219 = DIRECTION ( 'NONE',  ( 0.000000000000000000, 0.000000000000000000, 1.000000000000000000 ) ) ;
#220 = APPLICATION_CONTEXT ( 'configuration controlled 3d designs of mechanical parts and assemblies' ) ;
#221 = CARTESIAN_POINT ( 'NONE',  ( 13.00000000000000178, 1.592040838891559293E-15, 8.000000000000000000 ) ) ;
#222 = CARTESIAN_POINT ( 'NONE',  ( 0.000000000000000000, 0.000000000000000000, 8.000000000000000000 ) ) ;
#223 = LOCAL_TIME ( 11, 33, 55.00000000000000000, #203 ) ;
#224 = DIRECTION ( 'NONE',  ( -0.000000000000000000, -0.000000000000000000, -1.000000000000000000 ) ) ;
#225 = APPROVAL_STATUS ( 'not_yet_approved' ) ;
#226 = ORIENTED_EDGE ( 'NONE', *, *, #168, .T. ) ;
#227 = CC_DESIGN_SECURITY_CLASSIFICATION ( #187, ( #278 ) ) ;
#228 = PERSON_AND_ORGANIZATION ( #151, #195 ) ;
#229 = APPROVAL_ROLE ( '' ) ;
#230 = EDGE_CURVE ( 'NONE', #275, #61, #69, .T. ) ;
#231 = CARTESIAN_POINT ( 'NONE',  ( 10.20000000000000107, 0.000000000000000000, 7.999999999999992895 ) ) ;
#232 = DIRECTION ( 'NONE',  ( 0.000000000000000000, 0.000000000000000000, 1.000000000000000000 ) ) ;
#233 = CIRCLE ( 'NONE', #31, 13.00000000000000178 ) ;
#234 = AXIS2_PLACEMENT_3D ( 'NONE', #152, #96, #98 ) ;
#235 = CARTESIAN_POINT ( 'NONE',  ( 0.000000000000000000, 0.000000000000000000, 8.000000000000000000 ) ) ;
#236 = VERTEX_POINT ( 'NONE', #124 ) ;
#237 = CC_DESIGN_DATE_AND_TIME_ASSIGNMENT ( #5, #29, ( #196 ) ) ;
#238 = ORIENTED_EDGE ( 'NONE', *, *, #22, .F. ) ;
#239 = FACE_OUTER_BOUND ( 'NONE', #297, .T. ) ;
#240 = CYLINDRICAL_SURFACE ( 'NONE', #267, 10.00000000000000000 ) ;
#241 = DIRECTION ( 'NONE',  ( -0.000000000000000000, -0.000000000000000000, -1.000000000000000000 ) ) ;
#242 = CARTESIAN_POINT ( 'NONE',  ( 13.00000000000000178, 1.592040838891559293E-15, 8.000000000000000000 ) ) ;
#243 = CC_DESIGN_APPROVAL ( #165, ( #196 ) ) ;
#244 = PERSON_AND_ORGANIZATION_ROLE ( 'design_owner' ) ;
#245 = APPROVAL ( #225, 'NEURÈENÝ' ) ;
#246 = CALENDAR_DATE ( 2022, 7, 7 ) ;
#247 = EDGE_LOOP ( 'NONE', ( #204, #131 ) ) ;
#248 = COORDINATED_UNIVERSAL_TIME_OFFSET ( 1, 0, .AHEAD. ) ;
#249 = AXIS2_PLACEMENT_3D ( 'NONE', #258, #118, #303 ) ;
#250 = DATE_TIME_ROLE ( 'classification_date' ) ;
#251 = ORIENTED_EDGE ( 'NONE', *, *, #185, .T. ) ;
#252 = EDGE_CURVE ( 'NONE', #34, #61, #307, .T. ) ;
#253 = DATE_AND_TIME ( #108, #95 ) ;
#254 = VECTOR ( 'NONE', #4, 1000.000000000000000 ) ;
#255 = AXIS2_PLACEMENT_3D ( 'NONE', #8, #162, #62 ) ;
#256 = ORIENTED_EDGE ( 'NONE', *, *, #252, .F. ) ;
#257 = ORIENTED_EDGE ( 'NONE', *, *, #268, .T. ) ;
#258 = CARTESIAN_POINT ( 'NONE',  ( 0.000000000000000000, 0.000000000000000000, 8.000000000000000000 ) ) ;
#259 = TOROIDAL_SURFACE ( 'NONE', #177, 10.20000000000000107, 0.2000000000000000111 ) ;
#260 = DIRECTION ( 'NONE',  ( 0.000000000000000000, 0.000000000000000000, 1.000000000000000000 ) ) ;
#261 = EDGE_CURVE ( 'NONE', #215, #262, #148, .T. ) ;
#262 = VERTEX_POINT ( 'NONE', #28 ) ;
#263 = DIRECTION ( 'NONE',  ( -1.000000000000000000, 0.000000000000000000, 0.000000000000000000 ) ) ;
#264 = CARTESIAN_POINT ( 'NONE',  ( 0.000000000000000000, 0.000000000000000000, 408.0000000000000568 ) ) ;
#265 = DIRECTION ( 'NONE',  ( -0.000000000000000000, -0.000000000000000000, -1.000000000000000000 ) ) ;
#266 = CARTESIAN_POINT ( 'NONE',  ( 10.20000000000000107, 0.000000000000000000, 8.199999999999985079 ) ) ;
#267 = AXIS2_PLACEMENT_3D ( 'NONE', #264, #25, #125 ) ;
#268 = EDGE_CURVE ( 'NONE', #236, #43, #143, .T. ) ;
#269 = PERSON_AND_ORGANIZATION_ROLE ( 'design_supplier' ) ;
#270 = PERSON_AND_ORGANIZATION ( #151, #195 ) ;
#271 = APPROVAL_ROLE ( '' ) ;
#272 = ORIENTED_EDGE ( 'NONE', *, *, #252, .T. ) ;
#273 = AXIS2_PLACEMENT_3D ( 'NONE', #289, #192, #285 ) ;
#274 = APPLICATION_PROTOCOL_DEFINITION ( 'international standard', 'config_control_design', 1994, #137 ) ;
#275 = VERTEX_POINT ( 'NONE', #77 ) ;
#276 = MECHANICAL_CONTEXT ( 'NONE', #137, 'mechanical' ) ;
#277 = LINE ( 'NONE', #214, #217 ) ;
#278 = PRODUCT_DEFINITION_FORMATION_WITH_SPECIFIED_SOURCE ( 'LIBOVOLNÝ', '', #49, .NOT_KNOWN. ) ;
#279 = DIRECTION ( 'NONE',  ( 0.000000000000000000, 0.000000000000000000, 1.000000000000000000 ) ) ;
#280 = CYLINDRICAL_SURFACE ( 'NONE', #249, 13.00000000000000178 ) ;
#281 = FACE_OUTER_BOUND ( 'NONE', #247, .T. ) ;
#282 = AXIS2_PLACEMENT_3D ( 'NONE', #24, #219, #48 ) ;
#283 = AXIS2_PLACEMENT_3D ( 'NONE', #76, #179, #23 ) ;
#284 = CARTESIAN_POINT ( 'NONE',  ( -13.00000000000000178, 0.000000000000000000, 8.000000000000000000 ) ) ;
#285 = DIRECTION ( 'NONE',  ( 1.000000000000000000, 0.000000000000000000, -0.000000000000000000 ) ) ;
#286 = CARTESIAN_POINT ( 'NONE',  ( 0.000000000000000000, 0.000000000000000000, 0.000000000000000000 ) ) ;
#287 = AXIS2_PLACEMENT_3D ( 'NONE', #290, #53, #157 ) ;
#288 = PLANE ( 'NONE',  #273 ) ;
#289 = CARTESIAN_POINT ( 'NONE',  ( 0.000000000000000000, 0.000000000000000000, 8.000000000000000000 ) ) ;
#290 = CARTESIAN_POINT ( 'NONE',  ( 0.000000000000000000, 0.000000000000000000, 8.000000000000000000 ) ) ;
#291 = CC_DESIGN_PERSON_AND_ORGANIZATION_ASSIGNMENT ( #292, #244, ( #49 ) ) ;
#292 = PERSON_AND_ORGANIZATION ( #151, #195 ) ;
#293 = ORIENTED_EDGE ( 'NONE', *, *, #168, .F. ) ;
#294 = PERSON_AND_ORGANIZATION ( #151, #195 ) ;
#295 = ORIENTED_EDGE ( 'NONE', *, *, #268, .F. ) ;
#296 = APPROVAL_STATUS ( 'not_yet_approved' ) ;
#297 = EDGE_LOOP ( 'NONE', ( #59, #63 ) ) ;
#298 = ORIENTED_EDGE ( 'NONE', *, *, #261, .T. ) ;
#299 = DIRECTION ( 'NONE',  ( 0.000000000000000000, 0.000000000000000000, 1.000000000000000000 ) ) ;
#300 = AXIS2_PLACEMENT_3D ( 'NONE', #266, #128, #193 ) ;
#301 = CARTESIAN_POINT ( 'NONE',  ( 0.000000000000000000, 0.000000000000000000, 8.199999999999985079 ) ) ;
#302 = EDGE_CURVE ( 'NONE', #43, #262, #6, .T. ) ;
#303 = DIRECTION ( 'NONE',  ( -1.000000000000000000, 0.000000000000000000, 0.000000000000000000 ) ) ;
#304 = ORIENTED_EDGE ( 'NONE', *, *, #154, .F. ) ;
#305 = AXIS2_PLACEMENT_3D ( 'NONE', #222, #265, #150 ) ;
#306 = CARTESIAN_POINT ( 'NONE',  ( 0.000000000000000000, 0.000000000000000000, 408.0000000000000568 ) ) ;
#307 = LINE ( 'NONE', #198, #127 ) ;
ENDSEC;
END-ISO-10303-21;
