ISO-10303-21;
HEADER;
FILE_DESCRIPTION (( 'STEP AP203' ),
    '1' );
FILE_NAME ('af5e.STEP',
    '2022-07-07T09:37:05',
    ( '' ),
    ( '' ),
    'SwSTEP 2.0',
    'SolidWorks 2019',
    '' );
FILE_SCHEMA (( 'CONFIG_CONTROL_DESIGN' ));
ENDSEC;

DATA;
#1 = ORIENTED_EDGE ( 'NONE', *, *, #108, .T. ) ;
#2 = CYLINDRICAL_SURFACE ( 'NONE', #275, 9.000000000000000000 ) ;
#3 = ORIENTED_EDGE ( 'NONE', *, *, #259, .F. ) ;
#4 = DIRECTION ( 'NONE',  ( 0.000000000000000000, 0.000000000000000000, 1.000000000000000000 ) ) ;
#5 = CALENDAR_DATE ( 2022, 7, 7 ) ;
#6 = ORIENTED_EDGE ( 'NONE', *, *, #195, .T. ) ;
#7 = VECTOR ( 'NONE', #246, 1000.000000000000000 ) ;
#8 = CARTESIAN_POINT ( 'NONE',  ( 12.00000000000000178, 1.469576158976824144E-15, 0.000000000000000000 ) ) ;
#9 = APPROVAL_ROLE ( '' ) ;
#10 = ADVANCED_FACE ( 'NONE', ( #220 ), #94, .T. ) ;
#11 = DIRECTION ( 'NONE',  ( 0.000000000000000000, 0.000000000000000000, 1.000000000000000000 ) ) ;
#12 = PERSON_AND_ORGANIZATION ( #75, #192 ) ;
#13 = CARTESIAN_POINT ( 'NONE',  ( 0.000000000000000000, 0.000000000000000000, 132.0000000000000000 ) ) ;
#14 = AXIS2_PLACEMENT_3D ( 'NONE', #153, #39, #20 ) ;
#15 = CARTESIAN_POINT ( 'NONE',  ( -12.00000000000000178, 0.000000000000000000, 0.000000000000000000 ) ) ;
#16 = DIRECTION ( 'NONE',  ( 1.000000000000000000, 0.000000000000000000, 0.000000000000000000 ) ) ;
#17 = EDGE_CURVE ( 'NONE', #162, #285, #284, .T. ) ;
#18 = ADVANCED_FACE ( 'NONE', ( #47 ), #134, .F. ) ;
#19 = EDGE_LOOP ( 'NONE', ( #166, #26 ) ) ;
#20 = DIRECTION ( 'NONE',  ( -1.000000000000000000, 1.224646799147353207E-16, 0.000000000000000000 ) ) ;
#21 = AXIS2_PLACEMENT_3D ( 'NONE', #137, #28, #114 ) ;
#22 = CC_DESIGN_APPROVAL ( #305, ( #61 ) ) ;
#23 = AXIS2_PLACEMENT_3D ( 'NONE', #143, #265, #170 ) ;
#24 = CC_DESIGN_PERSON_AND_ORGANIZATION_ASSIGNMENT ( #175, #149, ( #32 ) ) ;
#25 = ORIENTED_EDGE ( 'NONE', *, *, #165, .F. ) ;
#26 = ORIENTED_EDGE ( 'NONE', *, *, #165, .T. ) ;
#27 = EDGE_CURVE ( 'NONE', #105, #135, #258, .T. ) ;
#28 = DIRECTION ( 'NONE',  ( -0.000000000000000000, -0.000000000000000000, -1.000000000000000000 ) ) ;
#29 = ORIENTED_EDGE ( 'NONE', *, *, #67, .T. ) ;
#30 = DIRECTION ( 'NONE',  ( 1.000000000000000000, 0.000000000000000000, 0.000000000000000000 ) ) ;
#31 = PERSON_AND_ORGANIZATION ( #75, #192 ) ;
#32 = PRODUCT ( 'af5e', 'af5e', '', ( #269 ) ) ;
#33 = ORIENTED_EDGE ( 'NONE', *, *, #289, .F. ) ;
#34 = CARTESIAN_POINT ( 'NONE',  ( -12.00000000000000178, 0.000000000000000000, 7.000000000000000000 ) ) ;
#35 = PERSON_AND_ORGANIZATION_ROLE ( 'creator' ) ;
#36 = AXIS2_PLACEMENT_3D ( 'NONE', #234, #257, #278 ) ;
#37 = FACE_OUTER_BOUND ( 'NONE', #266, .T. ) ;
#38 = DATE_AND_TIME ( #5, #214 ) ;
#39 = DIRECTION ( 'NONE',  ( 1.224646799147353207E-16, 1.000000000000000000, -0.000000000000000000 ) ) ;
#40 = CARTESIAN_POINT ( 'NONE',  ( 0.000000000000000000, 0.000000000000000000, 132.0000000000000000 ) ) ;
#41 = CIRCLE ( 'NONE', #211, 9.000000000000000000 ) ;
#42 = CIRCLE ( 'NONE', #212, 9.000000000000000000 ) ;
#43 = CARTESIAN_POINT ( 'NONE',  ( 0.000000000000000000, 0.000000000000000000, 7.000000000000000000 ) ) ;
#44 = LINE ( 'NONE', #236, #136 ) ;
#45 = CIRCLE ( 'NONE', #238, 12.00000000000000178 ) ;
#46 = CIRCLE ( 'NONE', #131, 12.00000000000000178 ) ;
#47 = FACE_OUTER_BOUND ( 'NONE', #78, .T. ) ;
#48 = CC_DESIGN_PERSON_AND_ORGANIZATION_ASSIGNMENT ( #12, #35, ( #61 ) ) ;
#49 = ORIENTED_EDGE ( 'NONE', *, *, #108, .F. ) ;
#50 = FACE_OUTER_BOUND ( 'NONE', #293, .T. ) ;
#51 = LOCAL_TIME ( 11, 37, 5.000000000000000000, #123 ) ;
#52 = ORIENTED_EDGE ( 'NONE', *, *, #267, .T. ) ;
#53 = CARTESIAN_POINT ( 'NONE',  ( 0.000000000000000000, 0.000000000000000000, 7.000000000000000000 ) ) ;
#54 = PERSON_AND_ORGANIZATION_ROLE ( 'classification_officer' ) ;
#55 = CARTESIAN_POINT ( 'NONE',  ( 0.000000000000000000, 0.000000000000000000, 7.000000000000000000 ) ) ;
#56 = CARTESIAN_POINT ( 'NONE',  ( 12.00000000000000178, 1.469576158976824144E-15, 7.000000000000000000 ) ) ;
#57 = APPROVAL_ROLE ( '' ) ;
#58 = DIRECTION ( 'NONE',  ( -0.000000000000000000, -0.000000000000000000, -1.000000000000000000 ) ) ;
#59 = DIRECTION ( 'NONE',  ( 1.000000000000000000, 0.000000000000000000, 0.000000000000000000 ) ) ;
#60 = APPROVAL_DATE_TIME ( #295, #209 ) ;
#61 = PRODUCT_DEFINITION_FORMATION_WITH_SPECIFIED_SOURCE ( 'LIBOVOLNÝ', '', #32, .NOT_KNOWN. ) ;
#62 = PLANE ( 'NONE',  #202 ) ;
#63 = CARTESIAN_POINT ( 'NONE',  ( 9.199999999999999289, 0.000000000000000000, 6.999999999999999112 ) ) ;
#64 = LOCAL_TIME ( 11, 37, 5.000000000000000000, #244 ) ;
#65 = CARTESIAN_POINT ( 'NONE',  ( 0.000000000000000000, 0.000000000000000000, 7.199999999999998401 ) ) ;
#66 = ADVANCED_FACE ( 'NONE', ( #76 ), #225, .T. ) ;
#67 = EDGE_CURVE ( 'NONE', #285, #162, #45, .T. ) ;
#68 = CLOSED_SHELL ( 'NONE', ( #173, #181, #10, #260, #232, #18, #159, #66, #140 ) ) ;
#69 = CC_DESIGN_DATE_AND_TIME_ASSIGNMENT ( #274, #177, ( #126 ) ) ;
#70 = ORIENTED_EDGE ( 'NONE', *, *, #301, .T. ) ;
#71 = DIRECTION ( 'NONE',  ( -0.000000000000000000, -0.000000000000000000, -1.000000000000000000 ) ) ;
#72 = ORIENTED_EDGE ( 'NONE', *, *, #247, .F. ) ;
#73 = CARTESIAN_POINT ( 'NONE',  ( 0.000000000000000000, 0.000000000000000000, 0.000000000000000000 ) ) ;
#74 = EDGE_LOOP ( 'NONE', ( #72, #207, #157, #307 ) ) ;
#75 = PERSON ( 'NEURÈENÝ', 'NEURÈENÝ', 'NEURÈENÝ', ('NEURÈENÝ'), ('NEURÈENÝ'), ('NEURÈENÝ') ) ;
#76 = FACE_OUTER_BOUND ( 'NONE', #113, .T. ) ;
#77 = COORDINATED_UNIVERSAL_TIME_OFFSET ( 1, 0, .AHEAD. ) ;
#78 = EDGE_LOOP ( 'NONE', ( #262, #261 ) ) ;
#79 = DIRECTION ( 'NONE',  ( 0.000000000000000000, 0.000000000000000000, 1.000000000000000000 ) ) ;
#80 = PERSON_AND_ORGANIZATION_ROLE ( 'design_supplier' ) ;
#81 = LINE ( 'NONE', #176, #112 ) ;
#82 = PERSON_AND_ORGANIZATION ( #75, #192 ) ;
#83 = AXIS2_PLACEMENT_3D ( 'NONE', #40, #106, #303 ) ;
#84 = DIRECTION ( 'NONE',  ( 0.000000000000000000, 0.000000000000000000, 1.000000000000000000 ) ) ;
#85 = DIRECTION ( 'NONE',  ( -0.000000000000000000, -0.000000000000000000, -1.000000000000000000 ) ) ;
#86 = LINE ( 'NONE', #180, #150 ) ;
#87 = EDGE_CURVE ( 'NONE', #223, #245, #95, .T. ) ;
#88 = CARTESIAN_POINT ( 'NONE',  ( 0.000000000000000000, 0.000000000000000000, 0.000000000000000000 ) ) ;
#89 = VERTEX_POINT ( 'NONE', #100 ) ;
#90 = CIRCLE ( 'NONE', #168, 9.199999999999999289 ) ;
#91 = DIRECTION ( 'NONE',  ( 1.000000000000000000, 0.000000000000000000, -0.000000000000000000 ) ) ;
#92 = VERTEX_POINT ( 'NONE', #271 ) ;
#93 = DIRECTION ( 'NONE',  ( 1.000000000000000000, 0.000000000000000000, 0.000000000000000000 ) ) ;
#94 = CYLINDRICAL_SURFACE ( 'NONE', #251, 12.00000000000000178 ) ;
#95 = LINE ( 'NONE', #190, #7 ) ;
#96 = COORDINATED_UNIVERSAL_TIME_OFFSET ( 1, 0, .AHEAD. ) ;
#97 = ORIENTED_EDGE ( 'NONE', *, *, #259, .T. ) ;
#98 = DIRECTION ( 'NONE',  ( 1.000000000000000000, 0.000000000000000000, 0.000000000000000000 ) ) ;
#99 = APPROVAL_STATUS ( 'not_yet_approved' ) ;
#100 = CARTESIAN_POINT ( 'NONE',  ( 9.000000000000000000, 1.102182119232617714E-15, 7.199999999999998401 ) ) ;
#101 = SECURITY_CLASSIFICATION_LEVEL ( 'unclassified' ) ;
#102 = CC_DESIGN_PERSON_AND_ORGANIZATION_ASSIGNMENT ( #226, #299, ( #215 ) ) ;
#103 = DATE_AND_TIME ( #228, #224 ) ;
#104 = DIRECTION ( 'NONE',  ( 0.000000000000000000, 0.000000000000000000, 1.000000000000000000 ) ) ;
#105 = VERTEX_POINT ( 'NONE', #34 ) ;
#106 = DIRECTION ( 'NONE',  ( 0.000000000000000000, 0.000000000000000000, 1.000000000000000000 ) ) ;
#107 = AXIS2_PLACEMENT_3D ( 'NONE', #221, #174, #249 ) ;
#108 = EDGE_CURVE ( 'NONE', #242, #92, #90, .T. ) ;
#109 = APPROVAL_PERSON_ORGANIZATION ( #144, #305, #272 ) ;
#110 = DIRECTION ( 'NONE',  ( 0.000000000000000000, 0.000000000000000000, 1.000000000000000000 ) ) ;
#111 = CC_DESIGN_SECURITY_CLASSIFICATION ( #126, ( #61 ) ) ;
#112 = VECTOR ( 'NONE', #71, 1000.000000000000000 ) ;
#113 = EDGE_LOOP ( 'NONE', ( #70, #97 ) ) ;
#114 = DIRECTION ( 'NONE',  ( 1.000000000000000000, 0.000000000000000000, 0.000000000000000000 ) ) ;
#115 = ORIENTED_EDGE ( 'NONE', *, *, #184, .T. ) ;
#116 = DIRECTION ( 'NONE',  ( 0.000000000000000000, 0.000000000000000000, 1.000000000000000000 ) ) ;
#117 = CALENDAR_DATE ( 2022, 7, 7 ) ;
#118 = EDGE_LOOP ( 'NONE', ( #142, #264, #270, #29 ) ) ;
#119 = CARTESIAN_POINT ( 'NONE',  ( 0.000000000000000000, 0.000000000000000000, 132.0000000000000000 ) ) ;
#120 = CALENDAR_DATE ( 2022, 7, 7 ) ;
#121 = APPLICATION_CONTEXT ( 'configuration controlled 3d designs of mechanical parts and assemblies' ) ;
#122 = FACE_OUTER_BOUND ( 'NONE', #139, .T. ) ;
#123 = COORDINATED_UNIVERSAL_TIME_OFFSET ( 1, 0, .AHEAD. ) ;
#124 = EDGE_CURVE ( 'NONE', #89, #242, #182, .T. ) ;
#125 =( NAMED_UNIT ( * ) SI_UNIT ( $, .STERADIAN. ) SOLID_ANGLE_UNIT ( ) );
#126 = SECURITY_CLASSIFICATION ( '', '', #101 ) ;
#127 = CARTESIAN_POINT ( 'NONE',  ( -9.000000000000000000, 0.000000000000000000, 132.0000000000000000 ) ) ;
#128 = CARTESIAN_POINT ( 'NONE',  ( -9.000000000000000000, 0.000000000000000000, 7.199999999999998401 ) ) ;
#129 = DIRECTION ( 'NONE',  ( 0.000000000000000000, 0.000000000000000000, 1.000000000000000000 ) ) ;
#130 = APPROVAL_PERSON_ORGANIZATION ( #152, #147, #9 ) ;
#131 = AXIS2_PLACEMENT_3D ( 'NONE', #200, #116, #59 ) ;
#132 = MANIFOLD_SOLID_BREP ( 'Zaoblit1', #68 ) ;
#133 = APPROVAL_PERSON_ORGANIZATION ( #194, #209, #57 ) ;
#134 = PLANE ( 'NONE',  #255 ) ;
#135 = VERTEX_POINT ( 'NONE', #56 ) ;
#136 = VECTOR ( 'NONE', #85, 1000.000000000000000 ) ;
#137 = CARTESIAN_POINT ( 'NONE',  ( 0.000000000000000000, 0.000000000000000000, 7.000000000000000000 ) ) ;
#138 = PRODUCT_DEFINITION_SHAPE ( 'NONE', 'NONE',  #215 ) ;
#139 = EDGE_LOOP ( 'NONE', ( #290, #171, #287, #169 ) ) ;
#140 = ADVANCED_FACE ( 'NONE', ( #193 ), #304, .F. ) ;
#141 = APPLICATION_PROTOCOL_DEFINITION ( 'international standard', 'config_control_design', 1994, #121 ) ;
#142 = ORIENTED_EDGE ( 'NONE', *, *, #267, .F. ) ;
#143 = CARTESIAN_POINT ( 'NONE',  ( 0.000000000000000000, 0.000000000000000000, 132.0000000000000000 ) ) ;
#144 = PERSON_AND_ORGANIZATION ( #75, #192 ) ;
#145 = DIRECTION ( 'NONE',  ( 0.000000000000000000, 0.000000000000000000, 1.000000000000000000 ) ) ;
#146 = DESIGN_CONTEXT ( 'detailed design', #121, 'design' ) ;
#147 = APPROVAL ( #99, 'NEURÈENÝ' ) ;
#148 = DIRECTION ( 'NONE',  ( -1.000000000000000000, 0.000000000000000000, 0.000000000000000000 ) ) ;
#149 = PERSON_AND_ORGANIZATION_ROLE ( 'design_owner' ) ;
#150 = VECTOR ( 'NONE', #277, 1000.000000000000000 ) ;
#151 = AXIS2_PLACEMENT_3D ( 'NONE', #167, #4, #188 ) ;
#152 = PERSON_AND_ORGANIZATION ( #75, #192 ) ;
#153 = CARTESIAN_POINT ( 'NONE',  ( -9.199999999999999289, 1.126675055215564822E-15, 7.199999999999998401 ) ) ;
#154 =( NAMED_UNIT ( * ) PLANE_ANGLE_UNIT ( ) SI_UNIT ( $, .RADIAN. ) );
#155 = CIRCLE ( 'NONE', #14, 0.2000000000000005107 ) ;
#156 = AXIS2_PLACEMENT_3D ( 'NONE', #291, #243, #30 ) ;
#157 = ORIENTED_EDGE ( 'NONE', *, *, #124, .T. ) ;
#158 = APPLICATION_PROTOCOL_DEFINITION ( 'international standard', 'config_control_design', 1994, #210 ) ;
#159 = ADVANCED_FACE ( 'NONE', ( #122 ), #2, .T. ) ;
#160 = CC_DESIGN_DATE_AND_TIME_ASSIGNMENT ( #103, #203, ( #215 ) ) ;
#161 = CIRCLE ( 'NONE', #83, 9.000000000000000000 ) ;
#162 = VERTEX_POINT ( 'NONE', #8 ) ;
#163 = EDGE_LOOP ( 'NONE', ( #1, #6 ) ) ;
#164 = DIRECTION ( 'NONE',  ( 0.000000000000000000, 0.000000000000000000, -1.000000000000000000 ) ) ;
#165 = EDGE_CURVE ( 'NONE', #135, #105, #46, .T. ) ;
#166 = ORIENTED_EDGE ( 'NONE', *, *, #27, .T. ) ;
#167 = CARTESIAN_POINT ( 'NONE',  ( 0.000000000000000000, 0.000000000000000000, 7.000000000000000000 ) ) ;
#168 = AXIS2_PLACEMENT_3D ( 'NONE', #53, #286, #93 ) ;
#169 = ORIENTED_EDGE ( 'NONE', *, *, #213, .T. ) ;
#170 = DIRECTION ( 'NONE',  ( 1.000000000000000000, 0.000000000000000000, -0.000000000000000000 ) ) ;
#171 = ORIENTED_EDGE ( 'NONE', *, *, #301, .F. ) ;
#172 = CC_DESIGN_PERSON_AND_ORGANIZATION_ASSIGNMENT ( #82, #54, ( #126 ) ) ;
#173 = ADVANCED_FACE ( 'NONE', ( #50 ), #306, .F. ) ;
#174 = DIRECTION ( 'NONE',  ( -0.000000000000000000, -0.000000000000000000, -1.000000000000000000 ) ) ;
#175 = PERSON_AND_ORGANIZATION ( #75, #192 ) ;
#176 = CARTESIAN_POINT ( 'NONE',  ( 9.000000000000000000, 1.102182119232617714E-15, 132.0000000000000000 ) ) ;
#177 = DATE_TIME_ROLE ( 'classification_date' ) ;
#178 = AXIS2_PLACEMENT_3D ( 'NONE', #198, #79, #241 ) ;
#179 = DIRECTION ( 'NONE',  ( 1.000000000000000000, 0.000000000000000000, 0.000000000000000000 ) ) ;
#180 = CARTESIAN_POINT ( 'NONE',  ( 12.00000000000000178, 1.469576158976824144E-15, 7.000000000000000000 ) ) ;
#181 = ADVANCED_FACE ( 'NONE', ( #37 ), #296, .T. ) ;
#182 = CIRCLE ( 'NONE', #217, 0.1999999999999996503 ) ;
#183 =( LENGTH_UNIT ( ) NAMED_UNIT ( * ) SI_UNIT ( .MILLI., .METRE. ) );
#184 = EDGE_CURVE ( 'NONE', #189, #89, #81, .T. ) ;
#185 = AXIS2_PLACEMENT_3D ( 'NONE', #88, #204, #208 ) ;
#186 = AXIS2_PLACEMENT_3D ( 'NONE', #191, #145, #248 ) ;
#187 = ORIENTED_EDGE ( 'NONE', *, *, #87, .F. ) ;
#188 = DIRECTION ( 'NONE',  ( 1.000000000000000000, 0.000000000000000000, 0.000000000000000000 ) ) ;
#189 = VERTEX_POINT ( 'NONE', #263 ) ;
#190 = CARTESIAN_POINT ( 'NONE',  ( -9.000000000000000000, 0.000000000000000000, 132.0000000000000000 ) ) ;
#191 = CARTESIAN_POINT ( 'NONE',  ( 0.000000000000000000, 0.000000000000000000, 0.000000000000000000 ) ) ;
#192 = ORGANIZATION ( 'NEURÈENÝ', 'NEURÈENÝ', '' ) ;
#193 = FACE_OUTER_BOUND ( 'NONE', #74, .T. ) ;
#194 = PERSON_AND_ORGANIZATION ( #75, #192 ) ;
#195 = EDGE_CURVE ( 'NONE', #92, #242, #283, .T. ) ;
#196 = EDGE_LOOP ( 'NONE', ( #25, #52, #218, #33 ) ) ;
#197 = UNCERTAINTY_MEASURE_WITH_UNIT (LENGTH_MEASURE( 1.000000000000000082E-05 ), #183, 'distance_accuracy_value', 'NONE');
#198 = CARTESIAN_POINT ( 'NONE',  ( 0.000000000000000000, 0.000000000000000000, 7.199999999999998401 ) ) ;
#199 = COORDINATED_UNIVERSAL_TIME_OFFSET ( 1, 0, .AHEAD. ) ;
#200 = CARTESIAN_POINT ( 'NONE',  ( 0.000000000000000000, 0.000000000000000000, 7.000000000000000000 ) ) ;
#201 = APPROVAL_DATE_TIME ( #38, #305 ) ;
#202 = AXIS2_PLACEMENT_3D ( 'NONE', #43, #84, #300 ) ;
#203 = DATE_TIME_ROLE ( 'creation_date' ) ;
#204 = DIRECTION ( 'NONE',  ( 0.000000000000000000, 0.000000000000000000, 1.000000000000000000 ) ) ;
#205 = FACE_OUTER_BOUND ( 'NONE', #118, .T. ) ;
#206 = ADVANCED_BREP_SHAPE_REPRESENTATION ( 'af5e', ( #132, #185 ), #298 ) ;
#207 = ORIENTED_EDGE ( 'NONE', *, *, #227, .F. ) ;
#208 = DIRECTION ( 'NONE',  ( 1.000000000000000000, 0.000000000000000000, 0.000000000000000000 ) ) ;
#209 = APPROVAL ( #297, 'NEURÈENÝ' ) ;
#210 = APPLICATION_CONTEXT ( 'configuration controlled 3d designs of mechanical parts and assemblies' ) ;
#211 = AXIS2_PLACEMENT_3D ( 'NONE', #13, #104, #279 ) ;
#212 = AXIS2_PLACEMENT_3D ( 'NONE', #65, #276, #179 ) ;
#213 = EDGE_CURVE ( 'NONE', #245, #89, #237, .T. ) ;
#214 = LOCAL_TIME ( 11, 37, 5.000000000000000000, #199 ) ;
#215 = PRODUCT_DEFINITION ( 'NEZNÁMÝ', '', #61, #146 ) ;
#216 = DIRECTION ( 'NONE',  ( -1.000000000000000000, 0.000000000000000000, 0.000000000000000000 ) ) ;
#217 = AXIS2_PLACEMENT_3D ( 'NONE', #268, #288, #164 ) ;
#218 = ORIENTED_EDGE ( 'NONE', *, *, #17, .T. ) ;
#219 = CARTESIAN_POINT ( 'NONE',  ( 0.000000000000000000, 0.000000000000000000, 7.199999999999998401 ) ) ;
#220 = FACE_OUTER_BOUND ( 'NONE', #196, .T. ) ;
#221 = CARTESIAN_POINT ( 'NONE',  ( 0.000000000000000000, 0.000000000000000000, 132.0000000000000000 ) ) ;
#222 = CALENDAR_DATE ( 2022, 7, 7 ) ;
#223 = VERTEX_POINT ( 'NONE', #127 ) ;
#224 = LOCAL_TIME ( 11, 37, 5.000000000000000000, #77 ) ;
#225 = PLANE ( 'NONE',  #23 ) ;
#226 = PERSON_AND_ORGANIZATION ( #75, #192 ) ;
#227 = EDGE_CURVE ( 'NONE', #89, #245, #42, .T. ) ;
#228 = CALENDAR_DATE ( 2022, 7, 7 ) ;
#229 = CYLINDRICAL_SURFACE ( 'NONE', #36, 12.00000000000000178 ) ;
#230 = DATE_AND_TIME ( #120, #302 ) ;
#231 = FACE_OUTER_BOUND ( 'NONE', #19, .T. ) ;
#232 = ADVANCED_FACE ( 'NONE', ( #235, #231 ), #62, .T. ) ;
#233 = AXIS2_PLACEMENT_3D ( 'NONE', #219, #129, #16 ) ;
#234 = CARTESIAN_POINT ( 'NONE',  ( 0.000000000000000000, 0.000000000000000000, 7.000000000000000000 ) ) ;
#235 = FACE_BOUND ( 'NONE', #163, .T. ) ;
#236 = CARTESIAN_POINT ( 'NONE',  ( -12.00000000000000178, 0.000000000000000000, 7.000000000000000000 ) ) ;
#237 = CIRCLE ( 'NONE', #233, 9.000000000000000000 ) ;
#238 = AXIS2_PLACEMENT_3D ( 'NONE', #73, #11, #98 ) ;
#239 = CARTESIAN_POINT ( 'NONE',  ( 0.000000000000000000, 0.000000000000000000, 0.000000000000000000 ) ) ;
#240 = ORIENTED_EDGE ( 'NONE', *, *, #124, .F. ) ;
#241 = DIRECTION ( 'NONE',  ( 1.000000000000000000, 0.000000000000000000, 0.000000000000000000 ) ) ;
#242 = VERTEX_POINT ( 'NONE', #63 ) ;
#243 = DIRECTION ( 'NONE',  ( 0.000000000000000000, 0.000000000000000000, 1.000000000000000000 ) ) ;
#244 = COORDINATED_UNIVERSAL_TIME_OFFSET ( 1, 0, .AHEAD. ) ;
#245 = VERTEX_POINT ( 'NONE', #128 ) ;
#246 = DIRECTION ( 'NONE',  ( -0.000000000000000000, -0.000000000000000000, -1.000000000000000000 ) ) ;
#247 = EDGE_CURVE ( 'NONE', #245, #92, #155, .T. ) ;
#248 = DIRECTION ( 'NONE',  ( 1.000000000000000000, 0.000000000000000000, 0.000000000000000000 ) ) ;
#249 = DIRECTION ( 'NONE',  ( -1.000000000000000000, 0.000000000000000000, 0.000000000000000000 ) ) ;
#251 = AXIS2_PLACEMENT_3D ( 'NONE', #55, #58, #216 ) ;
#250 = APPROVAL_STATUS ( 'not_yet_approved' ) ;
#252 = APPROVAL_DATE_TIME ( #230, #147 ) ;
#253 = CC_DESIGN_PERSON_AND_ORGANIZATION_ASSIGNMENT ( #31, #80, ( #61 ) ) ;
#254 = CC_DESIGN_APPROVAL ( #209, ( #215 ) ) ;
#255 = AXIS2_PLACEMENT_3D ( 'NONE', #239, #110, #91 ) ;
#256 = ORIENTED_EDGE ( 'NONE', *, *, #213, .F. ) ;
#257 = DIRECTION ( 'NONE',  ( -0.000000000000000000, -0.000000000000000000, -1.000000000000000000 ) ) ;
#258 = CIRCLE ( 'NONE', #151, 12.00000000000000178 ) ;
#259 = EDGE_CURVE ( 'NONE', #189, #223, #41, .T. ) ;
#260 = ADVANCED_FACE ( 'NONE', ( #205 ), #229, .T. ) ;
#261 = ORIENTED_EDGE ( 'NONE', *, *, #17, .F. ) ;
#262 = ORIENTED_EDGE ( 'NONE', *, *, #67, .F. ) ;
#263 = CARTESIAN_POINT ( 'NONE',  ( 9.000000000000000000, 1.102182119232617714E-15, 132.0000000000000000 ) ) ;
#264 = ORIENTED_EDGE ( 'NONE', *, *, #27, .F. ) ;
#265 = DIRECTION ( 'NONE',  ( 0.000000000000000000, 0.000000000000000000, 1.000000000000000000 ) ) ;
#266 = EDGE_LOOP ( 'NONE', ( #3, #115, #280, #187 ) ) ;
#267 = EDGE_CURVE ( 'NONE', #135, #162, #86, .T. ) ;
#268 = CARTESIAN_POINT ( 'NONE',  ( 9.199999999999999289, 0.000000000000000000, 7.199999999999998401 ) ) ;
#269 = MECHANICAL_CONTEXT ( 'NONE', #210, 'mechanical' ) ;
#270 = ORIENTED_EDGE ( 'NONE', *, *, #289, .T. ) ;
#271 = CARTESIAN_POINT ( 'NONE',  ( -9.199999999999999289, 1.126675055215564822E-15, 6.999999999999999112 ) ) ;
#272 = APPROVAL_ROLE ( '' ) ;
#273 = PRODUCT_RELATED_PRODUCT_CATEGORY ( 'detail', '', ( #32 ) ) ;
#275 = AXIS2_PLACEMENT_3D ( 'NONE', #119, #294, #148 ) ;
#274 = DATE_AND_TIME ( #117, #64 ) ;
#276 = DIRECTION ( 'NONE',  ( 0.000000000000000000, 0.000000000000000000, 1.000000000000000000 ) ) ;
#277 = DIRECTION ( 'NONE',  ( -0.000000000000000000, -0.000000000000000000, -1.000000000000000000 ) ) ;
#278 = DIRECTION ( 'NONE',  ( -1.000000000000000000, 0.000000000000000000, 0.000000000000000000 ) ) ;
#279 = DIRECTION ( 'NONE',  ( 1.000000000000000000, 0.000000000000000000, 0.000000000000000000 ) ) ;
#280 = ORIENTED_EDGE ( 'NONE', *, *, #227, .T. ) ;
#281 = ORIENTED_EDGE ( 'NONE', *, *, #247, .T. ) ;
#282 = CC_DESIGN_APPROVAL ( #147, ( #126 ) ) ;
#283 = CIRCLE ( 'NONE', #21, 9.199999999999999289 ) ;
#284 = CIRCLE ( 'NONE', #186, 12.00000000000000178 ) ;
#285 = VERTEX_POINT ( 'NONE', #15 ) ;
#286 = DIRECTION ( 'NONE',  ( -0.000000000000000000, -0.000000000000000000, -1.000000000000000000 ) ) ;
#287 = ORIENTED_EDGE ( 'NONE', *, *, #87, .T. ) ;
#288 = DIRECTION ( 'NONE',  ( 0.000000000000000000, -1.000000000000000000, 0.000000000000000000 ) ) ;
#289 = EDGE_CURVE ( 'NONE', #105, #285, #44, .T. ) ;
#290 = ORIENTED_EDGE ( 'NONE', *, *, #184, .F. ) ;
#291 = CARTESIAN_POINT ( 'NONE',  ( 0.000000000000000000, 0.000000000000000000, 7.199999999999998401 ) ) ;
#292 = SHAPE_DEFINITION_REPRESENTATION ( #138, #206 ) ;
#293 = EDGE_LOOP ( 'NONE', ( #256, #281, #49, #240 ) ) ;
#294 = DIRECTION ( 'NONE',  ( -0.000000000000000000, -0.000000000000000000, -1.000000000000000000 ) ) ;
#295 = DATE_AND_TIME ( #222, #51 ) ;
#296 = CYLINDRICAL_SURFACE ( 'NONE', #107, 9.000000000000000000 ) ;
#297 = APPROVAL_STATUS ( 'not_yet_approved' ) ;
#298 =( GEOMETRIC_REPRESENTATION_CONTEXT ( 3 ) GLOBAL_UNCERTAINTY_ASSIGNED_CONTEXT ( ( #197 ) ) GLOBAL_UNIT_ASSIGNED_CONTEXT ( ( #183, #154, #125 ) ) REPRESENTATION_CONTEXT ( 'NONE', 'WORKASPACE' ) );
#299 = PERSON_AND_ORGANIZATION_ROLE ( 'creator' ) ;
#300 = DIRECTION ( 'NONE',  ( 1.000000000000000000, 0.000000000000000000, -0.000000000000000000 ) ) ;
#301 = EDGE_CURVE ( 'NONE', #223, #189, #161, .T. ) ;
#302 = LOCAL_TIME ( 11, 37, 5.000000000000000000, #96 ) ;
#303 = DIRECTION ( 'NONE',  ( 1.000000000000000000, 0.000000000000000000, 0.000000000000000000 ) ) ;
#304 = TOROIDAL_SURFACE ( 'NONE', #156, 9.199999999999999289, 0.2000000000000000111 ) ;
#305 = APPROVAL ( #250, 'NEURÈENÝ' ) ;
#306 = TOROIDAL_SURFACE ( 'NONE', #178, 9.199999999999999289, 0.2000000000000000111 ) ;
#307 = ORIENTED_EDGE ( 'NONE', *, *, #195, .F. ) ;
ENDSEC;
END-ISO-10303-21;
