ISO-10303-21;
HEADER;
FILE_DESCRIPTION (( 'STEP AP203' ),
    '1' );
FILE_NAME ('9603.STEP',
    '2022-07-07T10:40:32',
    ( '' ),
    ( '' ),
    'SwSTEP 2.0',
    'SolidWorks 2019',
    '' );
FILE_SCHEMA (( 'CONFIG_CONTROL_DESIGN' ));
ENDSEC;

DATA;
#1 = VECTOR ( 'NONE', #228, 1000.000000000000000 ) ;
#2 = EDGE_CURVE ( 'NONE', #189, #295, #188, .T. ) ;
#3 = ORIENTED_EDGE ( 'NONE', *, *, #185, .T. ) ;
#4 = DIRECTION ( 'NONE',  ( 0.000000000000000000, 0.000000000000000000, 1.000000000000000000 ) ) ;
#5 = CC_DESIGN_PERSON_AND_ORGANIZATION_ASSIGNMENT ( #263, #52, ( #111 ) ) ;
#6 = ORIENTED_EDGE ( 'NONE', *, *, #282, .F. ) ;
#7 = FACE_OUTER_BOUND ( 'NONE', #129, .T. ) ;
#8 = DIRECTION ( 'NONE',  ( -0.000000000000000000, -0.000000000000000000, -1.000000000000000000 ) ) ;
#9 = AXIS2_PLACEMENT_3D ( 'NONE', #37, #60, #155 ) ;
#10 = ORIENTED_EDGE ( 'NONE', *, *, #305, .F. ) ;
#11 = CARTESIAN_POINT ( 'NONE',  ( 0.000000000000000000, 0.000000000000000000, 1.400000000000012346 ) ) ;
#12 = CARTESIAN_POINT ( 'NONE',  ( -1.250000000000000000, 0.000000000000000000, 0.000000000000000000 ) ) ;
#13 = CIRCLE ( 'NONE', #179, 1.250000000000000000 ) ;
#14 = EDGE_LOOP ( 'NONE', ( #307, #116, #82, #258 ) ) ;
#15 = ADVANCED_BREP_SHAPE_REPRESENTATION ( '9603', ( #50, #222 ), #180 ) ;
#16 = DIRECTION ( 'NONE',  ( 1.000000000000000000, 0.000000000000000000, 0.000000000000000000 ) ) ;
#17 = TOROIDAL_SURFACE ( 'NONE', #206, 0.7999999999999999334, 0.2000000000000000111 ) ;
#18 = CARTESIAN_POINT ( 'NONE',  ( 0.000000000000000000, 0.000000000000000000, 1.400000000000012346 ) ) ;
#19 = ADVANCED_FACE ( 'NONE', ( #270 ), #301, .T. ) ;
#20 = CARTESIAN_POINT ( 'NONE',  ( -0.5999999999999999778, 0.000000000000000000, 161.2000000000000171 ) ) ;
#21 = DIRECTION ( 'NONE',  ( 1.000000000000000000, 0.000000000000000000, 0.000000000000000000 ) ) ;
#22 =( NAMED_UNIT ( * ) PLANE_ANGLE_UNIT ( ) SI_UNIT ( $, .RADIAN. ) );
#23 = AXIS2_PLACEMENT_3D ( 'NONE', #231, #124, #227 ) ;
#24 = CARTESIAN_POINT ( 'NONE',  ( 0.000000000000000000, 0.000000000000000000, 161.2000000000000171 ) ) ;
#25 = EDGE_CURVE ( 'NONE', #123, #281, #108, .T. ) ;
#26 = CALENDAR_DATE ( 2022, 7, 7 ) ;
#27 = VERTEX_POINT ( 'NONE', #272 ) ;
#28 = APPROVAL_ROLE ( '' ) ;
#29 = DIRECTION ( 'NONE',  ( 0.000000000000000000, 0.000000000000000000, 1.000000000000000000 ) ) ;
#30 = CARTESIAN_POINT ( 'NONE',  ( 0.000000000000000000, 0.000000000000000000, 1.199999999999999956 ) ) ;
#31 = PERSON_AND_ORGANIZATION ( #198, #267 ) ;
#32 = DIRECTION ( 'NONE',  ( 1.000000000000000000, 0.000000000000000000, 0.000000000000000000 ) ) ;
#33 = CIRCLE ( 'NONE', #45, 0.7999999999999999334 ) ;
#34 = CC_DESIGN_APPROVAL ( #236, ( #164 ) ) ;
#35 = CARTESIAN_POINT ( 'NONE',  ( 1.250000000000000000, 1.530808498934191571E-16, 1.199999999999999956 ) ) ;
#36 = AXIS2_PLACEMENT_3D ( 'NONE', #171, #243, #94 ) ;
#37 = CARTESIAN_POINT ( 'NONE',  ( 0.7999999999999999334, 0.000000000000000000, 1.400000000000012346 ) ) ;
#38 = DIRECTION ( 'NONE',  ( 0.000000000000000000, 0.000000000000000000, 1.000000000000000000 ) ) ;
#39 = CARTESIAN_POINT ( 'NONE',  ( 0.5999999999999999778, 7.347880794884117764E-17, 161.2000000000000171 ) ) ;
#40 = AXIS2_PLACEMENT_3D ( 'NONE', #18, #104, #207 ) ;
#41 = CARTESIAN_POINT ( 'NONE',  ( 0.000000000000000000, 0.000000000000000000, 0.000000000000000000 ) ) ;
#42 = PERSON_AND_ORGANIZATION ( #198, #267 ) ;
#43 = PERSON_AND_ORGANIZATION ( #198, #267 ) ;
#44 = CARTESIAN_POINT ( 'NONE',  ( 0.000000000000000000, 0.000000000000000000, 0.000000000000000000 ) ) ;
#45 = AXIS2_PLACEMENT_3D ( 'NONE', #74, #197, #147 ) ;
#46 = VERTEX_POINT ( 'NONE', #58 ) ;
#47 = APPROVAL_STATUS ( 'not_yet_approved' ) ;
#48 = DIRECTION ( 'NONE',  ( -0.000000000000000000, -0.000000000000000000, -1.000000000000000000 ) ) ;
#49 = CIRCLE ( 'NONE', #148, 0.7999999999999999334 ) ;
#50 = MANIFOLD_SOLID_BREP ( 'Zaoblit1', #99 ) ;
#51 = EDGE_LOOP ( 'NONE', ( #226, #251, #205, #100 ) ) ;
#52 = PERSON_AND_ORGANIZATION_ROLE ( 'design_supplier' ) ;
#53 = CARTESIAN_POINT ( 'NONE',  ( 0.000000000000000000, 0.000000000000000000, 161.2000000000000171 ) ) ;
#54 = PRODUCT_DEFINITION ( 'NEZNÁMÝ', '', #111, #161 ) ;
#55 = PERSON_AND_ORGANIZATION_ROLE ( 'creator' ) ;
#56 = FACE_OUTER_BOUND ( 'NONE', #51, .T. ) ;
#57 = CIRCLE ( 'NONE', #86, 0.5999999999999999778 ) ;
#58 = CARTESIAN_POINT ( 'NONE',  ( -0.5999999999999999778, 0.000000000000000000, 161.2000000000000171 ) ) ;
#59 = ORIENTED_EDGE ( 'NONE', *, *, #25, .F. ) ;
#60 = DIRECTION ( 'NONE',  ( 0.000000000000000000, -1.000000000000000000, 0.000000000000000000 ) ) ;
#61 = VERTEX_POINT ( 'NONE', #106 ) ;
#62 = VECTOR ( 'NONE', #87, 1000.000000000000000 ) ;
#63 = EDGE_CURVE ( 'NONE', #220, #281, #209, .T. ) ;
#64 = CALENDAR_DATE ( 2022, 7, 7 ) ;
#65 = FACE_OUTER_BOUND ( 'NONE', #274, .T. ) ;
#66 = EDGE_CURVE ( 'NONE', #46, #214, #141, .T. ) ;
#67 = ORIENTED_EDGE ( 'NONE', *, *, #92, .F. ) ;
#68 = CALENDAR_DATE ( 2022, 7, 7 ) ;
#69 = APPROVAL ( #162, 'NEURÈENÝ' ) ;
#70 = ORIENTED_EDGE ( 'NONE', *, *, #122, .F. ) ;
#71 = DIRECTION ( 'NONE',  ( 0.000000000000000000, 0.000000000000000000, 1.000000000000000000 ) ) ;
#72 = ORIENTED_EDGE ( 'NONE', *, *, #112, .F. ) ;
#73 = DATE_AND_TIME ( #242, #75 ) ;
#74 = CARTESIAN_POINT ( 'NONE',  ( 0.000000000000000000, 0.000000000000000000, 1.199999999999999956 ) ) ;
#75 = LOCAL_TIME ( 12, 40, 32.00000000000000000, #138 ) ;
#76 = DIRECTION ( 'NONE',  ( 1.000000000000000000, 0.000000000000000000, 0.000000000000000000 ) ) ;
#77 = PLANE ( 'NONE',  #215 ) ;
#78 = DIRECTION ( 'NONE',  ( 1.000000000000000000, 0.000000000000000000, 0.000000000000000000 ) ) ;
#79 = DIRECTION ( 'NONE',  ( 0.000000000000000000, 0.000000000000000000, 1.000000000000000000 ) ) ;
#80 = PLANE ( 'NONE',  #276 ) ;
#81 = CC_DESIGN_DATE_AND_TIME_ASSIGNMENT ( #257, #230, ( #54 ) ) ;
#82 = ORIENTED_EDGE ( 'NONE', *, *, #305, .T. ) ;
#83 = ORIENTED_EDGE ( 'NONE', *, *, #105, .T. ) ;
#84 = PRODUCT ( '9603', '9603', '', ( #158 ) ) ;
#85 = APPROVAL_ROLE ( '' ) ;
#86 = AXIS2_PLACEMENT_3D ( 'NONE', #218, #175, #291 ) ;
#87 = DIRECTION ( 'NONE',  ( -0.000000000000000000, -0.000000000000000000, -1.000000000000000000 ) ) ;
#88 = DIRECTION ( 'NONE',  ( 0.000000000000000000, 0.000000000000000000, 1.000000000000000000 ) ) ;
#89 = ADVANCED_FACE ( 'NONE', ( #102 ), #80, .F. ) ;
#90 = AXIS2_PLACEMENT_3D ( 'NONE', #284, #48, #142 ) ;
#91 = FACE_BOUND ( 'NONE', #191, .T. ) ;
#92 = EDGE_CURVE ( 'NONE', #189, #299, #152, .T. ) ;
#93 = SHAPE_DEFINITION_REPRESENTATION ( #271, #15 ) ;
#94 = DIRECTION ( 'NONE',  ( 1.000000000000000000, 0.000000000000000000, 0.000000000000000000 ) ) ;
#95 = DATE_TIME_ROLE ( 'classification_date' ) ;
#96 = APPROVAL_PERSON_ORGANIZATION ( #306, #135, #85 ) ;
#97 = DIRECTION ( 'NONE',  ( 1.000000000000000000, 0.000000000000000000, 0.000000000000000000 ) ) ;
#98 = CARTESIAN_POINT ( 'NONE',  ( -0.7999999999999999334, 9.797174393178824918E-17, 1.400000000000012346 ) ) ;
#99 = CLOSED_SHELL ( 'NONE', ( #176, #293, #19, #201, #210, #89, #273, #125, #250 ) ) ;
#100 = ORIENTED_EDGE ( 'NONE', *, *, #112, .T. ) ;
#101 = DIRECTION ( 'NONE',  ( 1.000000000000000000, 0.000000000000000000, -0.000000000000000000 ) ) ;
#102 = FACE_OUTER_BOUND ( 'NONE', #204, .T. ) ;
#103 = AXIS2_PLACEMENT_3D ( 'NONE', #269, #298, #21 ) ;
#104 = DIRECTION ( 'NONE',  ( 0.000000000000000000, 0.000000000000000000, 1.000000000000000000 ) ) ;
#105 = EDGE_CURVE ( 'NONE', #214, #189, #249, .T. ) ;
#106 = CARTESIAN_POINT ( 'NONE',  ( -1.250000000000000000, 0.000000000000000000, 1.199999999999999956 ) ) ;
#107 = COORDINATED_UNIVERSAL_TIME_OFFSET ( 1, 0, .AHEAD. ) ;
#108 = CIRCLE ( 'NONE', #103, 1.250000000000000000 ) ;
#109 = CC_DESIGN_PERSON_AND_ORGANIZATION_ASSIGNMENT ( #42, #159, ( #54 ) ) ;
#110 = AXIS2_PLACEMENT_3D ( 'NONE', #294, #38, #78 ) ;
#111 = PRODUCT_DEFINITION_FORMATION_WITH_SPECIFIED_SOURCE ( 'LIBOVOLNÝ', '', #84, .NOT_KNOWN. ) ;
#112 = EDGE_CURVE ( 'NONE', #295, #189, #303, .T. ) ;
#113 = ORIENTED_EDGE ( 'NONE', *, *, #266, .F. ) ;
#114 = LINE ( 'NONE', #223, #163 ) ;
#115 = CARTESIAN_POINT ( 'NONE',  ( 0.000000000000000000, 0.000000000000000000, 1.199999999999999956 ) ) ;
#116 = ORIENTED_EDGE ( 'NONE', *, *, #63, .T. ) ;
#117 = APPROVAL_DATE_TIME ( #283, #236 ) ;
#118 = DIRECTION ( 'NONE',  ( -1.000000000000000000, 1.224646799147352714E-16, 0.000000000000000000 ) ) ;
#119 = DIRECTION ( 'NONE',  ( 1.000000000000000000, 0.000000000000000000, 0.000000000000000000 ) ) ;
#120 = AXIS2_PLACEMENT_3D ( 'NONE', #157, #79, #16 ) ;
#121 = CIRCLE ( 'NONE', #127, 1.250000000000000000 ) ;
#122 = EDGE_CURVE ( 'NONE', #27, #299, #33, .T. ) ;
#123 = VERTEX_POINT ( 'NONE', #12 ) ;
#124 = DIRECTION ( 'NONE',  ( -0.000000000000000000, -0.000000000000000000, -1.000000000000000000 ) ) ;
#125 = ADVANCED_FACE ( 'NONE', ( #7 ), #77, .T. ) ;
#126 = DIRECTION ( 'NONE',  ( -0.000000000000000000, -0.000000000000000000, -1.000000000000000000 ) ) ;
#127 = AXIS2_PLACEMENT_3D ( 'NONE', #44, #88, #211 ) ;
#128 = APPLICATION_PROTOCOL_DEFINITION ( 'international standard', 'config_control_design', 1994, #268 ) ;
#129 = EDGE_LOOP ( 'NONE', ( #172, #194 ) ) ;
#130 = APPROVAL_DATE_TIME ( #183, #135 ) ;
#131 = CARTESIAN_POINT ( 'NONE',  ( 0.7999999999999999334, 0.000000000000000000, 1.200000000000006173 ) ) ;
#132 = VECTOR ( 'NONE', #126, 1000.000000000000000 ) ;
#133 = CC_DESIGN_APPROVAL ( #69, ( #111 ) ) ;
#134 = DIRECTION ( 'NONE',  ( -0.000000000000000000, -0.000000000000000000, -1.000000000000000000 ) ) ;
#135 = APPROVAL ( #213, 'NEURÈENÝ' ) ;
#136 = CARTESIAN_POINT ( 'NONE',  ( -0.5999999999999999778, 0.000000000000000000, 1.400000000000012346 ) ) ;
#137 = APPLICATION_CONTEXT ( 'configuration controlled 3d designs of mechanical parts and assemblies' ) ;
#138 = COORDINATED_UNIVERSAL_TIME_OFFSET ( 1, 0, .AHEAD. ) ;
#139 = EDGE_CURVE ( 'NONE', #220, #61, #13, .T. ) ;
#140 = ORIENTED_EDGE ( 'NONE', *, *, #150, .F. ) ;
#141 = CIRCLE ( 'NONE', #120, 0.5999999999999999778 ) ;
#142 = DIRECTION ( 'NONE',  ( -1.000000000000000000, 0.000000000000000000, 0.000000000000000000 ) ) ;
#143 = EDGE_LOOP ( 'NONE', ( #177, #178 ) ) ;
#144 = PERSON_AND_ORGANIZATION_ROLE ( 'classification_officer' ) ;
#145 = FACE_OUTER_BOUND ( 'NONE', #217, .T. ) ;
#146 = DATE_AND_TIME ( #68, #297 ) ;
#147 = DIRECTION ( 'NONE',  ( 1.000000000000000000, 0.000000000000000000, 0.000000000000000000 ) ) ;
#148 = AXIS2_PLACEMENT_3D ( 'NONE', #115, #286, #119 ) ;
#149 = CYLINDRICAL_SURFACE ( 'NONE', #229, 1.250000000000000000 ) ;
#150 = EDGE_CURVE ( 'NONE', #61, #220, #221, .T. ) ;
#151 = EDGE_LOOP ( 'NONE', ( #167, #216, #169, #70 ) ) ;
#152 = CIRCLE ( 'NONE', #9, 0.2000000000000000944 ) ;
#153 = LOCAL_TIME ( 12, 40, 32.00000000000000000, #165 ) ;
#154 = ORIENTED_EDGE ( 'NONE', *, *, #233, .T. ) ;
#155 = DIRECTION ( 'NONE',  ( 0.000000000000000000, 0.000000000000000000, -1.000000000000000000 ) ) ;
#156 = LINE ( 'NONE', #20, #62 ) ;
#157 = CARTESIAN_POINT ( 'NONE',  ( 0.000000000000000000, 0.000000000000000000, 161.2000000000000171 ) ) ;
#158 = MECHANICAL_CONTEXT ( 'NONE', #268, 'mechanical' ) ;
#159 = PERSON_AND_ORGANIZATION_ROLE ( 'creator' ) ;
#160 = CC_DESIGN_PERSON_AND_ORGANIZATION_ASSIGNMENT ( #43, #300, ( #84 ) ) ;
#161 = DESIGN_CONTEXT ( 'detailed design', #137, 'design' ) ;
#162 = APPROVAL_STATUS ( 'not_yet_approved' ) ;
#163 = VECTOR ( 'NONE', #8, 1000.000000000000000 ) ;
#164 = SECURITY_CLASSIFICATION ( '', '', #259 ) ;
#165 = COORDINATED_UNIVERSAL_TIME_OFFSET ( 1, 0, .AHEAD. ) ;
#166 = ORIENTED_EDGE ( 'NONE', *, *, #25, .T. ) ;
#167 = ORIENTED_EDGE ( 'NONE', *, *, #233, .F. ) ;
#168 = DIRECTION ( 'NONE',  ( 1.000000000000000000, 0.000000000000000000, -0.000000000000000000 ) ) ;
#169 = ORIENTED_EDGE ( 'NONE', *, *, #92, .T. ) ;
#170 = CC_DESIGN_APPROVAL ( #135, ( #54 ) ) ;
#171 = CARTESIAN_POINT ( 'NONE',  ( 0.000000000000000000, 0.000000000000000000, 1.400000000000012346 ) ) ;
#172 = ORIENTED_EDGE ( 'NONE', *, *, #66, .T. ) ;
#173 = APPROVAL_DATE_TIME ( #73, #69 ) ;
#174 = CARTESIAN_POINT ( 'NONE',  ( 0.000000000000000000, 0.000000000000000000, 1.199999999999999956 ) ) ;
#175 = DIRECTION ( 'NONE',  ( 0.000000000000000000, 0.000000000000000000, 1.000000000000000000 ) ) ;
#176 = ADVANCED_FACE ( 'NONE', ( #239 ), #184, .F. ) ;
#177 = ORIENTED_EDGE ( 'NONE', *, *, #150, .T. ) ;
#178 = ORIENTED_EDGE ( 'NONE', *, *, #139, .T. ) ;
#179 = AXIS2_PLACEMENT_3D ( 'NONE', #289, #71, #76 ) ;
#180 =( GEOMETRIC_REPRESENTATION_CONTEXT ( 3 ) GLOBAL_UNCERTAINTY_ASSIGNED_CONTEXT ( ( #302 ) ) GLOBAL_UNIT_ASSIGNED_CONTEXT ( ( #252, #22, #278 ) ) REPRESENTATION_CONTEXT ( 'NONE', 'WORKASPACE' ) );
#181 = DIRECTION ( 'NONE',  ( 0.000000000000000000, 0.000000000000000000, 1.000000000000000000 ) ) ;
#182 = EDGE_LOOP ( 'NONE', ( #72, #154, #203, #67 ) ) ;
#183 = DATE_AND_TIME ( #64, #153 ) ;
#184 = TOROIDAL_SURFACE ( 'NONE', #36, 0.7999999999999999334, 0.2000000000000000111 ) ;
#185 = EDGE_CURVE ( 'NONE', #299, #27, #49, .T. ) ;
#186 = DIRECTION ( 'NONE',  ( 1.000000000000000000, 0.000000000000000000, 0.000000000000000000 ) ) ;
#187 = CARTESIAN_POINT ( 'NONE',  ( 1.250000000000000000, 1.530808498934191571E-16, 0.000000000000000000 ) ) ;
#188 = CIRCLE ( 'NONE', #110, 0.5999999999999999778 ) ;
#189 = VERTEX_POINT ( 'NONE', #262 ) ;
#190 = CYLINDRICAL_SURFACE ( 'NONE', #90, 0.5999999999999999778 ) ;
#191 = EDGE_LOOP ( 'NONE', ( #3, #237 ) ) ;
#192 = PERSON_AND_ORGANIZATION ( #198, #267 ) ;
#193 = DIRECTION ( 'NONE',  ( 0.000000000000000000, 0.000000000000000000, 1.000000000000000000 ) ) ;
#194 = ORIENTED_EDGE ( 'NONE', *, *, #266, .T. ) ;
#195 = CIRCLE ( 'NONE', #279, 0.2000000000000000944 ) ;
#196 = APPROVAL_ROLE ( '' ) ;
#197 = DIRECTION ( 'NONE',  ( -0.000000000000000000, -0.000000000000000000, -1.000000000000000000 ) ) ;
#198 = PERSON ( 'NEURÈENÝ', 'NEURÈENÝ', 'NEURÈENÝ', ('NEURÈENÝ'), ('NEURÈENÝ'), ('NEURÈENÝ') ) ;
#199 = PLANE ( 'NONE',  #296 ) ;
#200 = DIRECTION ( 'NONE',  ( -0.000000000000000000, -0.000000000000000000, -1.000000000000000000 ) ) ;
#201 = ADVANCED_FACE ( 'NONE', ( #145 ), #149, .T. ) ;
#202 = CC_DESIGN_PERSON_AND_ORGANIZATION_ASSIGNMENT ( #238, #144, ( #164 ) ) ;
#203 = ORIENTED_EDGE ( 'NONE', *, *, #185, .F. ) ;
#204 = EDGE_LOOP ( 'NONE', ( #59, #10 ) ) ;
#205 = ORIENTED_EDGE ( 'NONE', *, *, #282, .T. ) ;
#206 = AXIS2_PLACEMENT_3D ( 'NONE', #11, #265, #97 ) ;
#207 = DIRECTION ( 'NONE',  ( 1.000000000000000000, 0.000000000000000000, 0.000000000000000000 ) ) ;
#208 = DIRECTION ( 'NONE',  ( 0.000000000000000000, 0.000000000000000000, 1.000000000000000000 ) ) ;
#209 = LINE ( 'NONE', #247, #132 ) ;
#210 = ADVANCED_FACE ( 'NONE', ( #91, #245 ), #199, .T. ) ;
#211 = DIRECTION ( 'NONE',  ( 1.000000000000000000, 0.000000000000000000, 0.000000000000000000 ) ) ;
#212 = LOCAL_TIME ( 12, 40, 32.00000000000000000, #107 ) ;
#213 = APPROVAL_STATUS ( 'not_yet_approved' ) ;
#214 = VERTEX_POINT ( 'NONE', #290 ) ;
#215 = AXIS2_PLACEMENT_3D ( 'NONE', #53, #4, #264 ) ;
#216 = ORIENTED_EDGE ( 'NONE', *, *, #2, .F. ) ;
#217 = EDGE_LOOP ( 'NONE', ( #248, #140, #234, #166 ) ) ;
#218 = CARTESIAN_POINT ( 'NONE',  ( 0.000000000000000000, 0.000000000000000000, 161.2000000000000171 ) ) ;
#219 = DIRECTION ( 'NONE',  ( 1.224646799147353207E-16, 1.000000000000000000, -0.000000000000000000 ) ) ;
#220 = VERTEX_POINT ( 'NONE', #35 ) ;
#221 = CIRCLE ( 'NONE', #256, 1.250000000000000000 ) ;
#222 = AXIS2_PLACEMENT_3D ( 'NONE', #304, #208, #186 ) ;
#223 = CARTESIAN_POINT ( 'NONE',  ( -1.250000000000000000, 0.000000000000000000, 1.199999999999999956 ) ) ;
#224 = CARTESIAN_POINT ( 'NONE',  ( 0.000000000000000000, 0.000000000000000000, 1.199999999999999956 ) ) ;
#225 = LOCAL_TIME ( 12, 40, 32.00000000000000000, #288 ) ;
#226 = ORIENTED_EDGE ( 'NONE', *, *, #105, .F. ) ;
#227 = DIRECTION ( 'NONE',  ( -1.000000000000000000, 0.000000000000000000, 0.000000000000000000 ) ) ;
#228 = DIRECTION ( 'NONE',  ( -0.000000000000000000, -0.000000000000000000, -1.000000000000000000 ) ) ;
#229 = AXIS2_PLACEMENT_3D ( 'NONE', #224, #200, #241 ) ;
#230 = DATE_TIME_ROLE ( 'creation_date' ) ;
#231 = CARTESIAN_POINT ( 'NONE',  ( 0.000000000000000000, 0.000000000000000000, 1.199999999999999956 ) ) ;
#232 = CALENDAR_DATE ( 2022, 7, 7 ) ;
#233 = EDGE_CURVE ( 'NONE', #295, #27, #195, .T. ) ;
#234 = ORIENTED_EDGE ( 'NONE', *, *, #240, .T. ) ;
#235 = COORDINATED_UNIVERSAL_TIME_OFFSET ( 1, 0, .AHEAD. ) ;
#236 = APPROVAL ( #47, 'NEURÈENÝ' ) ;
#237 = ORIENTED_EDGE ( 'NONE', *, *, #122, .T. ) ;
#238 = PERSON_AND_ORGANIZATION ( #198, #267 ) ;
#239 = FACE_OUTER_BOUND ( 'NONE', #182, .T. ) ;
#240 = EDGE_CURVE ( 'NONE', #61, #123, #114, .T. ) ;
#241 = DIRECTION ( 'NONE',  ( -1.000000000000000000, 0.000000000000000000, 0.000000000000000000 ) ) ;
#242 = CALENDAR_DATE ( 2022, 7, 7 ) ;
#243 = DIRECTION ( 'NONE',  ( 0.000000000000000000, 0.000000000000000000, 1.000000000000000000 ) ) ;
#244 = AXIS2_PLACEMENT_3D ( 'NONE', #24, #134, #275 ) ;
#245 = FACE_OUTER_BOUND ( 'NONE', #143, .T. ) ;
#246 = PRODUCT_RELATED_PRODUCT_CATEGORY ( 'detail', '', ( #84 ) ) ;
#247 = CARTESIAN_POINT ( 'NONE',  ( 1.250000000000000000, 1.530808498934191571E-16, 1.199999999999999956 ) ) ;
#248 = ORIENTED_EDGE ( 'NONE', *, *, #63, .F. ) ;
#249 = LINE ( 'NONE', #39, #1 ) ;
#250 = ADVANCED_FACE ( 'NONE', ( #260 ), #17, .F. ) ;
#251 = ORIENTED_EDGE ( 'NONE', *, *, #66, .F. ) ;
#252 =( LENGTH_UNIT ( ) NAMED_UNIT ( * ) SI_UNIT ( .MILLI., .METRE. ) );
#253 = CC_DESIGN_PERSON_AND_ORGANIZATION_ASSIGNMENT ( #192, #55, ( #111 ) ) ;
#254 = PERSON_AND_ORGANIZATION ( #198, #267 ) ;
#255 = CYLINDRICAL_SURFACE ( 'NONE', #244, 0.5999999999999999778 ) ;
#256 = AXIS2_PLACEMENT_3D ( 'NONE', #174, #193, #32 ) ;
#257 = DATE_AND_TIME ( #232, #212 ) ;
#258 = ORIENTED_EDGE ( 'NONE', *, *, #240, .F. ) ;
#259 = SECURITY_CLASSIFICATION_LEVEL ( 'unclassified' ) ;
#260 = FACE_OUTER_BOUND ( 'NONE', #151, .T. ) ;
#261 = CC_DESIGN_SECURITY_CLASSIFICATION ( #164, ( #111 ) ) ;
#262 = CARTESIAN_POINT ( 'NONE',  ( 0.5999999999999999778, 7.347880794884117764E-17, 1.400000000000012346 ) ) ;
#263 = PERSON_AND_ORGANIZATION ( #198, #267 ) ;
#264 = DIRECTION ( 'NONE',  ( 1.000000000000000000, 0.000000000000000000, -0.000000000000000000 ) ) ;
#265 = DIRECTION ( 'NONE',  ( 0.000000000000000000, 0.000000000000000000, 1.000000000000000000 ) ) ;
#266 = EDGE_CURVE ( 'NONE', #214, #46, #57, .T. ) ;
#267 = ORGANIZATION ( 'NEURÈENÝ', 'NEURÈENÝ', '' ) ;
#268 = APPLICATION_CONTEXT ( 'configuration controlled 3d designs of mechanical parts and assemblies' ) ;
#269 = CARTESIAN_POINT ( 'NONE',  ( 0.000000000000000000, 0.000000000000000000, 0.000000000000000000 ) ) ;
#270 = FACE_OUTER_BOUND ( 'NONE', #14, .T. ) ;
#272 = CARTESIAN_POINT ( 'NONE',  ( -0.7999999999999999334, 9.797174393178824918E-17, 1.200000000000006173 ) ) ;
#271 = PRODUCT_DEFINITION_SHAPE ( 'NONE', 'NONE',  #54 ) ;
#273 = ADVANCED_FACE ( 'NONE', ( #56 ), #190, .T. ) ;
#274 = EDGE_LOOP ( 'NONE', ( #113, #83, #280, #6 ) ) ;
#275 = DIRECTION ( 'NONE',  ( -1.000000000000000000, 0.000000000000000000, 0.000000000000000000 ) ) ;
#276 = AXIS2_PLACEMENT_3D ( 'NONE', #41, #181, #101 ) ;
#277 = APPLICATION_PROTOCOL_DEFINITION ( 'international standard', 'config_control_design', 1994, #137 ) ;
#278 =( NAMED_UNIT ( * ) SI_UNIT ( $, .STERADIAN. ) SOLID_ANGLE_UNIT ( ) );
#279 = AXIS2_PLACEMENT_3D ( 'NONE', #98, #219, #118 ) ;
#280 = ORIENTED_EDGE ( 'NONE', *, *, #2, .T. ) ;
#281 = VERTEX_POINT ( 'NONE', #187 ) ;
#282 = EDGE_CURVE ( 'NONE', #46, #295, #156, .T. ) ;
#283 = DATE_AND_TIME ( #26, #225 ) ;
#284 = CARTESIAN_POINT ( 'NONE',  ( 0.000000000000000000, 0.000000000000000000, 161.2000000000000171 ) ) ;
#285 = CC_DESIGN_DATE_AND_TIME_ASSIGNMENT ( #146, #95, ( #164 ) ) ;
#286 = DIRECTION ( 'NONE',  ( -0.000000000000000000, -0.000000000000000000, -1.000000000000000000 ) ) ;
#287 = APPROVAL_PERSON_ORGANIZATION ( #31, #236, #196 ) ;
#288 = COORDINATED_UNIVERSAL_TIME_OFFSET ( 1, 0, .AHEAD. ) ;
#289 = CARTESIAN_POINT ( 'NONE',  ( 0.000000000000000000, 0.000000000000000000, 1.199999999999999956 ) ) ;
#290 = CARTESIAN_POINT ( 'NONE',  ( 0.5999999999999999778, 7.347880794884117764E-17, 161.2000000000000171 ) ) ;
#291 = DIRECTION ( 'NONE',  ( 1.000000000000000000, 0.000000000000000000, 0.000000000000000000 ) ) ;
#292 = APPROVAL_PERSON_ORGANIZATION ( #254, #69, #28 ) ;
#293 = ADVANCED_FACE ( 'NONE', ( #65 ), #255, .T. ) ;
#294 = CARTESIAN_POINT ( 'NONE',  ( 0.000000000000000000, 0.000000000000000000, 1.400000000000012346 ) ) ;
#295 = VERTEX_POINT ( 'NONE', #136 ) ;
#296 = AXIS2_PLACEMENT_3D ( 'NONE', #30, #29, #168 ) ;
#297 = LOCAL_TIME ( 12, 40, 32.00000000000000000, #235 ) ;
#298 = DIRECTION ( 'NONE',  ( 0.000000000000000000, 0.000000000000000000, 1.000000000000000000 ) ) ;
#299 = VERTEX_POINT ( 'NONE', #131 ) ;
#300 = PERSON_AND_ORGANIZATION_ROLE ( 'design_owner' ) ;
#301 = CYLINDRICAL_SURFACE ( 'NONE', #23, 1.250000000000000000 ) ;
#302 = UNCERTAINTY_MEASURE_WITH_UNIT (LENGTH_MEASURE( 1.000000000000000082E-05 ), #252, 'distance_accuracy_value', 'NONE');
#303 = CIRCLE ( 'NONE', #40, 0.5999999999999999778 ) ;
#304 = CARTESIAN_POINT ( 'NONE',  ( 0.000000000000000000, 0.000000000000000000, 0.000000000000000000 ) ) ;
#305 = EDGE_CURVE ( 'NONE', #281, #123, #121, .T. ) ;
#306 = PERSON_AND_ORGANIZATION ( #198, #267 ) ;
#307 = ORIENTED_EDGE ( 'NONE', *, *, #139, .F. ) ;
ENDSEC;
END-ISO-10303-21;
