ISO-10303-21;
HEADER;
FILE_DESCRIPTION (( 'STEP AP203' ),
    '1' );
FILE_NAME ('b345.STEP',
    '2022-07-07T10:35:12',
    ( '' ),
    ( '' ),
    'SwSTEP 2.0',
    'SolidWorks 2019',
    '' );
FILE_SCHEMA (( 'CONFIG_CONTROL_DESIGN' ));
ENDSEC;

DATA;
#1 = COORDINATED_UNIVERSAL_TIME_OFFSET ( 1, 0, .AHEAD. ) ;
#2 = LOCAL_TIME ( 12, 35, 12.00000000000000000, #78 ) ;
#3 = DATE_AND_TIME ( #202, #43 ) ;
#4 = ADVANCED_FACE ( 'NONE', ( #111, #158 ), #17, .T. ) ;
#5 = AXIS2_PLACEMENT_3D ( 'NONE', #163, #11, #66 ) ;
#6 = APPROVAL_STATUS ( 'not_yet_approved' ) ;
#7 = ORIENTED_EDGE ( 'NONE', *, *, #217, .F. ) ;
#8 = AXIS2_PLACEMENT_3D ( 'NONE', #50, #22, #115 ) ;
#9 = ADVANCED_FACE ( 'NONE', ( #253 ), #164, .F. ) ;
#10 = CARTESIAN_POINT ( 'NONE',  ( 0.000000000000000000, 0.000000000000000000, 2.000000000000000000 ) ) ;
#11 = DIRECTION ( 'NONE',  ( -0.000000000000000000, -0.000000000000000000, -1.000000000000000000 ) ) ;
#12 = AXIS2_PLACEMENT_3D ( 'NONE', #305, #94, #189 ) ;
#13 = ORIENTED_EDGE ( 'NONE', *, *, #220, .F. ) ;
#14 = EDGE_CURVE ( 'NONE', #39, #175, #289, .T. ) ;
#15 = PRODUCT_DEFINITION_SHAPE ( 'NONE', 'NONE',  #103 ) ;
#16 = SHAPE_DEFINITION_REPRESENTATION ( #15, #46 ) ;
#17 = PLANE ( 'NONE',  #114 ) ;
#18 = CARTESIAN_POINT ( 'NONE',  ( 0.000000000000000000, 0.000000000000000000, 2.000000000000000000 ) ) ;
#19 = AXIS2_PLACEMENT_3D ( 'NONE', #247, #153, #127 ) ;
#20 = EDGE_CURVE ( 'NONE', #288, #277, #197, .T. ) ;
#21 = DIRECTION ( 'NONE',  ( -0.000000000000000000, -0.000000000000000000, -1.000000000000000000 ) ) ;
#22 = DIRECTION ( 'NONE',  ( 0.000000000000000000, 0.000000000000000000, 1.000000000000000000 ) ) ;
#23 = CARTESIAN_POINT ( 'NONE',  ( -1.000000000000000000, 0.000000000000000000, 2.199999999999979750 ) ) ;
#24 = APPLICATION_CONTEXT ( 'configuration controlled 3d designs of mechanical parts and assemblies' ) ;
#25 = PLANE ( 'NONE',  #12 ) ;
#26 = PRODUCT_RELATED_PRODUCT_CATEGORY ( 'detail', '', ( #208 ) ) ;
#27 = CARTESIAN_POINT ( 'NONE',  ( 2.000000000000000000, 2.449293598294706414E-16, 0.000000000000000000 ) ) ;
#28 = AXIS2_PLACEMENT_3D ( 'NONE', #232, #89, #69 ) ;
#29 = COORDINATED_UNIVERSAL_TIME_OFFSET ( 1, 0, .AHEAD. ) ;
#30 = PERSON_AND_ORGANIZATION ( #135, #211 ) ;
#31 = CC_DESIGN_APPROVAL ( #137, ( #281 ) ) ;
#32 = ADVANCED_FACE ( 'NONE', ( #185 ), #230, .F. ) ;
#33 = VERTEX_POINT ( 'NONE', #131 ) ;
#34 = AXIS2_PLACEMENT_3D ( 'NONE', #10, #255, #45 ) ;
#35 = CALENDAR_DATE ( 2022, 7, 7 ) ;
#36 = APPLICATION_CONTEXT ( 'configuration controlled 3d designs of mechanical parts and assemblies' ) ;
#37 = PERSON_AND_ORGANIZATION ( #135, #211 ) ;
#38 = CIRCLE ( 'NONE', #156, 1.000000000000000000 ) ;
#39 = VERTEX_POINT ( 'NONE', #107 ) ;
#40 = DIRECTION ( 'NONE',  ( 1.000000000000000000, 0.000000000000000000, -0.000000000000000000 ) ) ;
#41 = ORIENTED_EDGE ( 'NONE', *, *, #55, .T. ) ;
#42 = CC_DESIGN_PERSON_AND_ORGANIZATION_ASSIGNMENT ( #263, #222, ( #281 ) ) ;
#43 = LOCAL_TIME ( 12, 35, 12.00000000000000000, #124 ) ;
#44 = DIRECTION ( 'NONE',  ( 1.000000000000000000, 0.000000000000000000, -0.000000000000000000 ) ) ;
#45 = DIRECTION ( 'NONE',  ( -1.000000000000000000, 0.000000000000000000, 0.000000000000000000 ) ) ;
#46 = ADVANCED_BREP_SHAPE_REPRESENTATION ( 'b345', ( #184, #19 ), #118 ) ;
#47 = ADVANCED_FACE ( 'NONE', ( #67 ), #229, .T. ) ;
#48 = DIRECTION ( 'NONE',  ( 0.000000000000000000, 0.000000000000000000, 1.000000000000000000 ) ) ;
#49 = TOROIDAL_SURFACE ( 'NONE', #84, 1.200000000000000178, 0.2000000000000000111 ) ;
#50 = CARTESIAN_POINT ( 'NONE',  ( 0.000000000000000000, 0.000000000000000000, 317.0000000000000000 ) ) ;
#51 = CARTESIAN_POINT ( 'NONE',  ( 0.000000000000000000, 0.000000000000000000, 0.000000000000000000 ) ) ;
#52 = CC_DESIGN_PERSON_AND_ORGANIZATION_ASSIGNMENT ( #37, #106, ( #103 ) ) ;
#53 = CYLINDRICAL_SURFACE ( 'NONE', #278, 1.000000000000000000 ) ;
#54 = PERSON_AND_ORGANIZATION ( #135, #211 ) ;
#55 = EDGE_CURVE ( 'NONE', #251, #86, #142, .T. ) ;
#56 = ORIENTED_EDGE ( 'NONE', *, *, #162, .T. ) ;
#57 = AXIS2_PLACEMENT_3D ( 'NONE', #237, #262, #113 ) ;
#58 = ORIENTED_EDGE ( 'NONE', *, *, #201, .F. ) ;
#59 = PERSON_AND_ORGANIZATION_ROLE ( 'design_supplier' ) ;
#60 = ORIENTED_EDGE ( 'NONE', *, *, #299, .T. ) ;
#61 = AXIS2_PLACEMENT_3D ( 'NONE', #70, #169, #260 ) ;
#62 = ORIENTED_EDGE ( 'NONE', *, *, #271, .F. ) ;
#63 = ADVANCED_FACE ( 'NONE', ( #228 ), #108, .T. ) ;
#64 = AXIS2_PLACEMENT_3D ( 'NONE', #110, #276, #87 ) ;
#65 = DIRECTION ( 'NONE',  ( -1.000000000000000000, 1.224646799147351975E-16, 0.000000000000000000 ) ) ;
#66 = DIRECTION ( 'NONE',  ( -1.000000000000000000, 0.000000000000000000, 0.000000000000000000 ) ) ;
#67 = FACE_OUTER_BOUND ( 'NONE', #268, .T. ) ;
#68 = EDGE_CURVE ( 'NONE', #251, #221, #284, .T. ) ;
#69 = DIRECTION ( 'NONE',  ( 1.000000000000000000, 0.000000000000000000, 0.000000000000000000 ) ) ;
#70 = CARTESIAN_POINT ( 'NONE',  ( 0.000000000000000000, 0.000000000000000000, 2.000000000000000000 ) ) ;
#71 = LINE ( 'NONE', #279, #92 ) ;
#72 = ADVANCED_FACE ( 'NONE', ( #297 ), #53, .T. ) ;
#73 = DIRECTION ( 'NONE',  ( 1.000000000000000000, 0.000000000000000000, 0.000000000000000000 ) ) ;
#74 = DIRECTION ( 'NONE',  ( 1.000000000000000000, 0.000000000000000000, 0.000000000000000000 ) ) ;
#75 = CIRCLE ( 'NONE', #8, 1.000000000000000000 ) ;
#76 = LINE ( 'NONE', #256, #188 ) ;
#77 = CC_DESIGN_PERSON_AND_ORGANIZATION_ASSIGNMENT ( #194, #80, ( #208 ) ) ;
#78 = COORDINATED_UNIVERSAL_TIME_OFFSET ( 1, 0, .AHEAD. ) ;
#79 = ORIENTED_EDGE ( 'NONE', *, *, #14, .F. ) ;
#80 = PERSON_AND_ORGANIZATION_ROLE ( 'design_owner' ) ;
#81 =( NAMED_UNIT ( * ) SI_UNIT ( $, .STERADIAN. ) SOLID_ANGLE_UNIT ( ) );
#82 = EDGE_LOOP ( 'NONE', ( #7, #62, #272, #130 ) ) ;
#83 = APPROVAL ( #225, 'NEURÈENÝ' ) ;
#84 = AXIS2_PLACEMENT_3D ( 'NONE', #167, #141, #96 ) ;
#85 = EDGE_LOOP ( 'NONE', ( #265, #41, #58, #213 ) ) ;
#86 = VERTEX_POINT ( 'NONE', #307 ) ;
#87 = DIRECTION ( 'NONE',  ( 1.000000000000000000, 0.000000000000000000, 0.000000000000000000 ) ) ;
#88 = CARTESIAN_POINT ( 'NONE',  ( 0.000000000000000000, 0.000000000000000000, 2.000000000000000000 ) ) ;
#89 = DIRECTION ( 'NONE',  ( 0.000000000000000000, 0.000000000000000000, 1.000000000000000000 ) ) ;
#90 = CARTESIAN_POINT ( 'NONE',  ( 1.000000000000000000, 1.224646799147353207E-16, 2.199999999999979750 ) ) ;
#91 = CARTESIAN_POINT ( 'NONE',  ( 0.000000000000000000, 0.000000000000000000, 2.000000000000000000 ) ) ;
#92 = VECTOR ( 'NONE', #21, 1000.000000000000000 ) ;
#93 = APPROVAL_PERSON_ORGANIZATION ( #204, #137, #290 ) ;
#94 = DIRECTION ( 'NONE',  ( 0.000000000000000000, 0.000000000000000000, 1.000000000000000000 ) ) ;
#95 = CARTESIAN_POINT ( 'NONE',  ( -2.000000000000000000, 0.000000000000000000, 2.000000000000000000 ) ) ;
#96 = DIRECTION ( 'NONE',  ( 1.000000000000000000, 0.000000000000000000, 0.000000000000000000 ) ) ;
#97 = CIRCLE ( 'NONE', #57, 0.2000000000000000944 ) ;
#98 = DATE_AND_TIME ( #154, #177 ) ;
#99 = ORIENTED_EDGE ( 'NONE', *, *, #14, .T. ) ;
#100 = APPROVAL_DATE_TIME ( #3, #83 ) ;
#101 = DATE_AND_TIME ( #104, #105 ) ;
#102 = ORIENTED_EDGE ( 'NONE', *, *, #201, .T. ) ;
#103 = PRODUCT_DEFINITION ( 'NEZNÁMÝ', '', #281, #155 ) ;
#104 = CALENDAR_DATE ( 2022, 7, 7 ) ;
#105 = LOCAL_TIME ( 12, 35, 12.00000000000000000, #249 ) ;
#106 = PERSON_AND_ORGANIZATION_ROLE ( 'creator' ) ;
#107 = CARTESIAN_POINT ( 'NONE',  ( 2.000000000000000000, 2.449293598294706414E-16, 2.000000000000000000 ) ) ;
#108 = CYLINDRICAL_SURFACE ( 'NONE', #34, 2.000000000000000000 ) ;
#109 = CARTESIAN_POINT ( 'NONE',  ( -1.200000000000000178, 1.469576158976823799E-16, 2.199999999999979750 ) ) ;
#110 = CARTESIAN_POINT ( 'NONE',  ( 0.000000000000000000, 0.000000000000000000, 0.000000000000000000 ) ) ;
#111 = FACE_BOUND ( 'NONE', #300, .T. ) ;
#112 = SECURITY_CLASSIFICATION ( '', '', #264 ) ;
#113 = DIRECTION ( 'NONE',  ( 0.000000000000000000, 0.000000000000000000, -1.000000000000000000 ) ) ;
#114 = AXIS2_PLACEMENT_3D ( 'NONE', #88, #275, #44 ) ;
#115 = DIRECTION ( 'NONE',  ( 1.000000000000000000, 0.000000000000000000, 0.000000000000000000 ) ) ;
#116 = CC_DESIGN_DATE_AND_TIME_ASSIGNMENT ( #98, #170, ( #103 ) ) ;
#117 = CARTESIAN_POINT ( 'NONE',  ( -2.000000000000000000, 0.000000000000000000, 0.000000000000000000 ) ) ;
#118 =( GEOMETRIC_REPRESENTATION_CONTEXT ( 3 ) GLOBAL_UNCERTAINTY_ASSIGNED_CONTEXT ( ( #203 ) ) GLOBAL_UNIT_ASSIGNED_CONTEXT ( ( #172, #174, #81 ) ) REPRESENTATION_CONTEXT ( 'NONE', 'WORKASPACE' ) );
#119 = CARTESIAN_POINT ( 'NONE',  ( -2.000000000000000000, 0.000000000000000000, 2.000000000000000000 ) ) ;
#120 = DIRECTION ( 'NONE',  ( 0.000000000000000000, 0.000000000000000000, 1.000000000000000000 ) ) ;
#121 = MECHANICAL_CONTEXT ( 'NONE', #24, 'mechanical' ) ;
#122 = EDGE_LOOP ( 'NONE', ( #224, #13 ) ) ;
#123 = AXIS2_PLACEMENT_3D ( 'NONE', #91, #192, #74 ) ;
#124 = COORDINATED_UNIVERSAL_TIME_OFFSET ( 1, 0, .AHEAD. ) ;
#125 = VECTOR ( 'NONE', #285, 1000.000000000000000 ) ;
#126 = EDGE_CURVE ( 'NONE', #175, #288, #214, .T. ) ;
#127 = DIRECTION ( 'NONE',  ( 1.000000000000000000, 0.000000000000000000, 0.000000000000000000 ) ) ;
#128 = EDGE_LOOP ( 'NONE', ( #254, #205 ) ) ;
#129 = APPLICATION_PROTOCOL_DEFINITION ( 'international standard', 'config_control_design', 1994, #24 ) ;
#130 = ORIENTED_EDGE ( 'NONE', *, *, #68, .T. ) ;
#131 = CARTESIAN_POINT ( 'NONE',  ( 1.200000000000000178, 0.000000000000000000, 1.999999999999989564 ) ) ;
#132 = EDGE_LOOP ( 'NONE', ( #60, #99 ) ) ;
#133 = LOCAL_TIME ( 12, 35, 12.00000000000000000, #29 ) ;
#134 = DIRECTION ( 'NONE',  ( 1.000000000000000000, 0.000000000000000000, 0.000000000000000000 ) ) ;
#135 = PERSON ( 'NEURÈENÝ', 'NEURÈENÝ', 'NEURÈENÝ', ('NEURÈENÝ'), ('NEURÈENÝ'), ('NEURÈENÝ') ) ;
#136 = ORIENTED_EDGE ( 'NONE', *, *, #126, .T. ) ;
#137 = APPROVAL ( #6, 'NEURÈENÝ' ) ;
#138 = ORIENTED_EDGE ( 'NONE', *, *, #248, .T. ) ;
#139 = DIRECTION ( 'NONE',  ( -1.000000000000000000, 0.000000000000000000, 0.000000000000000000 ) ) ;
#140 = APPROVAL_PERSON_ORGANIZATION ( #245, #195, #227 ) ;
#141 = DIRECTION ( 'NONE',  ( 0.000000000000000000, 0.000000000000000000, 1.000000000000000000 ) ) ;
#142 = CIRCLE ( 'NONE', #180, 0.2000000000000000944 ) ;
#143 = CARTESIAN_POINT ( 'NONE',  ( 2.000000000000000000, 2.449293598294706414E-16, 2.000000000000000000 ) ) ;
#144 = FACE_OUTER_BOUND ( 'NONE', #128, .T. ) ;
#145 = CC_DESIGN_APPROVAL ( #195, ( #103 ) ) ;
#146 = DIRECTION ( 'NONE',  ( 0.000000000000000000, 0.000000000000000000, 1.000000000000000000 ) ) ;
#147 = PERSON_AND_ORGANIZATION ( #135, #211 ) ;
#148 = PERSON_AND_ORGANIZATION_ROLE ( 'classification_officer' ) ;
#149 = CC_DESIGN_SECURITY_CLASSIFICATION ( #112, ( #281 ) ) ;
#150 = APPROVAL_STATUS ( 'not_yet_approved' ) ;
#151 = EDGE_CURVE ( 'NONE', #200, #251, #71, .T. ) ;
#152 = ORIENTED_EDGE ( 'NONE', *, *, #20, .T. ) ;
#153 = DIRECTION ( 'NONE',  ( 0.000000000000000000, 0.000000000000000000, 1.000000000000000000 ) ) ;
#154 = CALENDAR_DATE ( 2022, 7, 7 ) ;
#155 = DESIGN_CONTEXT ( 'detailed design', #36, 'design' ) ;
#156 = AXIS2_PLACEMENT_3D ( 'NONE', #218, #120, #306 ) ;
#157 = ORIENTED_EDGE ( 'NONE', *, *, #242, .F. ) ;
#158 = FACE_OUTER_BOUND ( 'NONE', #132, .T. ) ;
#159 = AXIS2_PLACEMENT_3D ( 'NONE', #18, #209, #134 ) ;
#160 = ORIENTED_EDGE ( 'NONE', *, *, #220, .T. ) ;
#161 = DIRECTION ( 'NONE',  ( 1.224646799147353207E-16, 1.000000000000000000, -0.000000000000000000 ) ) ;
#162 = EDGE_CURVE ( 'NONE', #221, #251, #267, .T. ) ;
#163 = CARTESIAN_POINT ( 'NONE',  ( 0.000000000000000000, 0.000000000000000000, 2.000000000000000000 ) ) ;
#164 = TOROIDAL_SURFACE ( 'NONE', #28, 1.200000000000000178, 0.2000000000000000111 ) ;
#165 = EDGE_LOOP ( 'NONE', ( #157, #198, #136, #152 ) ) ;
#166 = CC_DESIGN_PERSON_AND_ORGANIZATION_ASSIGNMENT ( #54, #59, ( #281 ) ) ;
#167 = CARTESIAN_POINT ( 'NONE',  ( 0.000000000000000000, 0.000000000000000000, 2.199999999999979750 ) ) ;
#168 = DIRECTION ( 'NONE',  ( 0.000000000000000000, 0.000000000000000000, 1.000000000000000000 ) ) ;
#169 = DIRECTION ( 'NONE',  ( -0.000000000000000000, -0.000000000000000000, -1.000000000000000000 ) ) ;
#170 = DATE_TIME_ROLE ( 'creation_date' ) ;
#171 = APPROVAL_DATE_TIME ( #243, #195 ) ;
#172 =( LENGTH_UNIT ( ) NAMED_UNIT ( * ) SI_UNIT ( .MILLI., .METRE. ) );
#173 = APPROVAL_PERSON_ORGANIZATION ( #30, #83, #266 ) ;
#174 =( NAMED_UNIT ( * ) PLANE_ANGLE_UNIT ( ) SI_UNIT ( $, .RADIAN. ) );
#175 = VERTEX_POINT ( 'NONE', #119 ) ;
#176 = AXIS2_PLACEMENT_3D ( 'NONE', #303, #146, #302 ) ;
#177 = LOCAL_TIME ( 12, 35, 12.00000000000000000, #1 ) ;
#178 = ORIENTED_EDGE ( 'NONE', *, *, #55, .F. ) ;
#179 = VERTEX_POINT ( 'NONE', #219 ) ;
#180 = AXIS2_PLACEMENT_3D ( 'NONE', #109, #161, #65 ) ;
#181 = ADVANCED_FACE ( 'NONE', ( #239 ), #49, .F. ) ;
#182 = CARTESIAN_POINT ( 'NONE',  ( 0.000000000000000000, 0.000000000000000000, 0.000000000000000000 ) ) ;
#183 = EDGE_LOOP ( 'NONE', ( #178, #301, #138, #273 ) ) ;
#184 = MANIFOLD_SOLID_BREP ( 'Zaoblit1', #252 ) ;
#185 = FACE_OUTER_BOUND ( 'NONE', #122, .T. ) ;
#186 = CYLINDRICAL_SURFACE ( 'NONE', #233, 1.000000000000000000 ) ;
#187 = FACE_OUTER_BOUND ( 'NONE', #294, .T. ) ;
#188 = VECTOR ( 'NONE', #235, 1000.000000000000000 ) ;
#189 = DIRECTION ( 'NONE',  ( 1.000000000000000000, 0.000000000000000000, -0.000000000000000000 ) ) ;
#190 = EDGE_CURVE ( 'NONE', #86, #33, #257, .T. ) ;
#191 = CARTESIAN_POINT ( 'NONE',  ( -1.000000000000000000, 0.000000000000000000, 317.0000000000000000 ) ) ;
#192 = DIRECTION ( 'NONE',  ( -0.000000000000000000, -0.000000000000000000, -1.000000000000000000 ) ) ;
#193 = CC_DESIGN_APPROVAL ( #83, ( #112 ) ) ;
#194 = PERSON_AND_ORGANIZATION ( #135, #211 ) ;
#195 = APPROVAL ( #150, 'NEURÈENÝ' ) ;
#196 = DATE_TIME_ROLE ( 'classification_date' ) ;
#197 = CIRCLE ( 'NONE', #64, 2.000000000000000000 ) ;
#198 = ORIENTED_EDGE ( 'NONE', *, *, #299, .F. ) ;
#199 = APPROVAL_DATE_TIME ( #101, #137 ) ;
#200 = VERTEX_POINT ( 'NONE', #191 ) ;
#201 = EDGE_CURVE ( 'NONE', #33, #86, #296, .T. ) ;
#202 = CALENDAR_DATE ( 2022, 7, 7 ) ;
#203 = UNCERTAINTY_MEASURE_WITH_UNIT (LENGTH_MEASURE( 1.000000000000000082E-05 ), #172, 'distance_accuracy_value', 'NONE');
#204 = PERSON_AND_ORGANIZATION ( #135, #211 ) ;
#205 = ORIENTED_EDGE ( 'NONE', *, *, #280, .T. ) ;
#206 = DIRECTION ( 'NONE',  ( 1.000000000000000000, 0.000000000000000000, 0.000000000000000000 ) ) ;
#207 = DIRECTION ( 'NONE',  ( 0.000000000000000000, 0.000000000000000000, 1.000000000000000000 ) ) ;
#208 = PRODUCT ( 'b345', 'b345', '', ( #121 ) ) ;
#209 = DIRECTION ( 'NONE',  ( 0.000000000000000000, 0.000000000000000000, 1.000000000000000000 ) ) ;
#210 = ORIENTED_EDGE ( 'NONE', *, *, #190, .T. ) ;
#211 = ORGANIZATION ( 'NEURÈENÝ', 'NEURÈENÝ', '' ) ;
#212 = CC_DESIGN_PERSON_AND_ORGANIZATION_ASSIGNMENT ( #147, #148, ( #112 ) ) ;
#213 = ORIENTED_EDGE ( 'NONE', *, *, #248, .F. ) ;
#214 = LINE ( 'NONE', #95, #125 ) ;
#215 = DIRECTION ( 'NONE',  ( -1.000000000000000000, 0.000000000000000000, 0.000000000000000000 ) ) ;
#216 = DIRECTION ( 'NONE',  ( -0.000000000000000000, -0.000000000000000000, -1.000000000000000000 ) ) ;
#217 = EDGE_CURVE ( 'NONE', #179, #221, #76, .T. ) ;
#218 = CARTESIAN_POINT ( 'NONE',  ( 0.000000000000000000, 0.000000000000000000, 317.0000000000000000 ) ) ;
#219 = CARTESIAN_POINT ( 'NONE',  ( 1.000000000000000000, 1.224646799147353207E-16, 317.0000000000000000 ) ) ;
#220 = EDGE_CURVE ( 'NONE', #277, #288, #287, .T. ) ;
#221 = VERTEX_POINT ( 'NONE', #90 ) ;
#222 = PERSON_AND_ORGANIZATION_ROLE ( 'creator' ) ;
#223 = AXIS2_PLACEMENT_3D ( 'NONE', #295, #274, #206 ) ;
#224 = ORIENTED_EDGE ( 'NONE', *, *, #20, .F. ) ;
#225 = APPROVAL_STATUS ( 'not_yet_approved' ) ;
#226 = ORIENTED_EDGE ( 'NONE', *, *, #280, .F. ) ;
#227 = APPROVAL_ROLE ( '' ) ;
#228 = FACE_OUTER_BOUND ( 'NONE', #165, .T. ) ;
#229 = CYLINDRICAL_SURFACE ( 'NONE', #5, 2.000000000000000000 ) ;
#230 = PLANE ( 'NONE',  #236 ) ;
#231 = ORIENTED_EDGE ( 'NONE', *, *, #217, .T. ) ;
#232 = CARTESIAN_POINT ( 'NONE',  ( 0.000000000000000000, 0.000000000000000000, 2.199999999999979750 ) ) ;
#233 = AXIS2_PLACEMENT_3D ( 'NONE', #258, #241, #139 ) ;
#234 = LINE ( 'NONE', #143, #240 ) ;
#235 = DIRECTION ( 'NONE',  ( -0.000000000000000000, -0.000000000000000000, -1.000000000000000000 ) ) ;
#236 = AXIS2_PLACEMENT_3D ( 'NONE', #182, #207, #40 ) ;
#237 = CARTESIAN_POINT ( 'NONE',  ( 1.200000000000000178, 0.000000000000000000, 2.199999999999979750 ) ) ;
#238 = ADVANCED_FACE ( 'NONE', ( #187 ), #186, .T. ) ;
#239 = FACE_OUTER_BOUND ( 'NONE', #183, .T. ) ;
#240 = VECTOR ( 'NONE', #216, 1000.000000000000000 ) ;
#241 = DIRECTION ( 'NONE',  ( -0.000000000000000000, -0.000000000000000000, -1.000000000000000000 ) ) ;
#242 = EDGE_CURVE ( 'NONE', #39, #277, #234, .T. ) ;
#243 = DATE_AND_TIME ( #270, #2 ) ;
#244 = DATE_AND_TIME ( #35, #133 ) ;
#245 = PERSON_AND_ORGANIZATION ( #135, #211 ) ;
#246 = ORIENTED_EDGE ( 'NONE', *, *, #242, .T. ) ;
#247 = CARTESIAN_POINT ( 'NONE',  ( 0.000000000000000000, 0.000000000000000000, 0.000000000000000000 ) ) ;
#248 = EDGE_CURVE ( 'NONE', #221, #33, #97, .T. ) ;
#249 = COORDINATED_UNIVERSAL_TIME_OFFSET ( 1, 0, .AHEAD. ) ;
#250 = AXIS2_PLACEMENT_3D ( 'NONE', #283, #168, #261 ) ;
#251 = VERTEX_POINT ( 'NONE', #23 ) ;
#252 = CLOSED_SHELL ( 'NONE', ( #9, #238, #47, #63, #4, #32, #72, #292, #181 ) ) ;
#253 = FACE_OUTER_BOUND ( 'NONE', #85, .T. ) ;
#254 = ORIENTED_EDGE ( 'NONE', *, *, #271, .T. ) ;
#255 = DIRECTION ( 'NONE',  ( -0.000000000000000000, -0.000000000000000000, -1.000000000000000000 ) ) ;
#256 = CARTESIAN_POINT ( 'NONE',  ( 1.000000000000000000, 1.224646799147353207E-16, 317.0000000000000000 ) ) ;
#257 = CIRCLE ( 'NONE', #123, 1.200000000000000178 ) ;
#258 = CARTESIAN_POINT ( 'NONE',  ( 0.000000000000000000, 0.000000000000000000, 317.0000000000000000 ) ) ;
#259 = CC_DESIGN_DATE_AND_TIME_ASSIGNMENT ( #244, #196, ( #112 ) ) ;
#260 = DIRECTION ( 'NONE',  ( 1.000000000000000000, 0.000000000000000000, 0.000000000000000000 ) ) ;
#261 = DIRECTION ( 'NONE',  ( 1.000000000000000000, 0.000000000000000000, 0.000000000000000000 ) ) ;
#262 = DIRECTION ( 'NONE',  ( 0.000000000000000000, -1.000000000000000000, 0.000000000000000000 ) ) ;
#263 = PERSON_AND_ORGANIZATION ( #135, #211 ) ;
#264 = SECURITY_CLASSIFICATION_LEVEL ( 'unclassified' ) ;
#265 = ORIENTED_EDGE ( 'NONE', *, *, #68, .F. ) ;
#266 = APPROVAL_ROLE ( '' ) ;
#267 = CIRCLE ( 'NONE', #176, 1.000000000000000000 ) ;
#268 = EDGE_LOOP ( 'NONE', ( #79, #246, #160, #291 ) ) ;
#269 = AXIS2_PLACEMENT_3D ( 'NONE', #51, #48, #73 ) ;
#270 = CALENDAR_DATE ( 2022, 7, 7 ) ;
#271 = EDGE_CURVE ( 'NONE', #200, #179, #75, .T. ) ;
#272 = ORIENTED_EDGE ( 'NONE', *, *, #151, .T. ) ;
#273 = ORIENTED_EDGE ( 'NONE', *, *, #190, .F. ) ;
#274 = DIRECTION ( 'NONE',  ( 0.000000000000000000, 0.000000000000000000, 1.000000000000000000 ) ) ;
#275 = DIRECTION ( 'NONE',  ( 0.000000000000000000, 0.000000000000000000, 1.000000000000000000 ) ) ;
#276 = DIRECTION ( 'NONE',  ( 0.000000000000000000, 0.000000000000000000, 1.000000000000000000 ) ) ;
#277 = VERTEX_POINT ( 'NONE', #27 ) ;
#278 = AXIS2_PLACEMENT_3D ( 'NONE', #286, #282, #215 ) ;
#279 = CARTESIAN_POINT ( 'NONE',  ( -1.000000000000000000, 0.000000000000000000, 317.0000000000000000 ) ) ;
#280 = EDGE_CURVE ( 'NONE', #179, #200, #38, .T. ) ;
#281 = PRODUCT_DEFINITION_FORMATION_WITH_SPECIFIED_SOURCE ( 'LIBOVOLNÝ', '', #208, .NOT_KNOWN. ) ;
#282 = DIRECTION ( 'NONE',  ( -0.000000000000000000, -0.000000000000000000, -1.000000000000000000 ) ) ;
#283 = CARTESIAN_POINT ( 'NONE',  ( 0.000000000000000000, 0.000000000000000000, 2.000000000000000000 ) ) ;
#284 = CIRCLE ( 'NONE', #223, 1.000000000000000000 ) ;
#285 = DIRECTION ( 'NONE',  ( -0.000000000000000000, -0.000000000000000000, -1.000000000000000000 ) ) ;
#286 = CARTESIAN_POINT ( 'NONE',  ( 0.000000000000000000, 0.000000000000000000, 317.0000000000000000 ) ) ;
#287 = CIRCLE ( 'NONE', #269, 2.000000000000000000 ) ;
#288 = VERTEX_POINT ( 'NONE', #117 ) ;
#289 = CIRCLE ( 'NONE', #159, 2.000000000000000000 ) ;
#290 = APPROVAL_ROLE ( '' ) ;
#291 = ORIENTED_EDGE ( 'NONE', *, *, #126, .F. ) ;
#292 = ADVANCED_FACE ( 'NONE', ( #144 ), #25, .T. ) ;
#293 = APPLICATION_PROTOCOL_DEFINITION ( 'international standard', 'config_control_design', 1994, #36 ) ;
#294 = EDGE_LOOP ( 'NONE', ( #226, #231, #56, #298 ) ) ;
#295 = CARTESIAN_POINT ( 'NONE',  ( 0.000000000000000000, 0.000000000000000000, 2.199999999999979750 ) ) ;
#296 = CIRCLE ( 'NONE', #61, 1.200000000000000178 ) ;
#297 = FACE_OUTER_BOUND ( 'NONE', #82, .T. ) ;
#298 = ORIENTED_EDGE ( 'NONE', *, *, #151, .F. ) ;
#299 = EDGE_CURVE ( 'NONE', #175, #39, #304, .T. ) ;
#300 = EDGE_LOOP ( 'NONE', ( #102, #210 ) ) ;
#301 = ORIENTED_EDGE ( 'NONE', *, *, #162, .F. ) ;
#302 = DIRECTION ( 'NONE',  ( 1.000000000000000000, 0.000000000000000000, 0.000000000000000000 ) ) ;
#303 = CARTESIAN_POINT ( 'NONE',  ( 0.000000000000000000, 0.000000000000000000, 2.199999999999979750 ) ) ;
#304 = CIRCLE ( 'NONE', #250, 2.000000000000000000 ) ;
#305 = CARTESIAN_POINT ( 'NONE',  ( 0.000000000000000000, 0.000000000000000000, 317.0000000000000000 ) ) ;
#306 = DIRECTION ( 'NONE',  ( 1.000000000000000000, 0.000000000000000000, 0.000000000000000000 ) ) ;
#307 = CARTESIAN_POINT ( 'NONE',  ( -1.200000000000000178, 1.469576158976823799E-16, 1.999999999999989564 ) ) ;
ENDSEC;
END-ISO-10303-21;
