ISO-10303-21;
HEADER;
FILE_DESCRIPTION (( 'STEP AP203' ),
    '1' );
FILE_NAME ('6cef.STEP',
    '2022-07-07T09:47:48',
    ( '' ),
    ( '' ),
    'SwSTEP 2.0',
    'SolidWorks 2019',
    '' );
FILE_SCHEMA (( 'CONFIG_CONTROL_DESIGN' ));
ENDSEC;

DATA;
#1 = CARTESIAN_POINT ( 'NONE',  ( 8.000000000000000000, 9.797174393178825657E-16, 5.000000000000000000 ) ) ;
#2 = CIRCLE ( 'NONE', #181, 5.500000000000000000 ) ;
#3 = EDGE_CURVE ( 'NONE', #294, #193, #285, .T. ) ;
#4 = FACE_OUTER_BOUND ( 'NONE', #200, .T. ) ;
#5 = CIRCLE ( 'NONE', #39, 5.699999999999999289 ) ;
#6 = FACE_OUTER_BOUND ( 'NONE', #104, .T. ) ;
#7 = EDGE_CURVE ( 'NONE', #65, #18, #2, .T. ) ;
#8 = APPLICATION_PROTOCOL_DEFINITION ( 'international standard', 'config_control_design', 1994, #128 ) ;
#9 = PERSON_AND_ORGANIZATION_ROLE ( 'design_owner' ) ;
#10 = AXIS2_PLACEMENT_3D ( 'NONE', #282, #49, #70 ) ;
#11 = SECURITY_CLASSIFICATION_LEVEL ( 'unclassified' ) ;
#12 = EDGE_CURVE ( 'NONE', #197, #38, #5, .T. ) ;
#13 = DIRECTION ( 'NONE',  ( 1.000000000000000000, 0.000000000000000000, 0.000000000000000000 ) ) ;
#14 = CIRCLE ( 'NONE', #204, 8.000000000000000000 ) ;
#15 = EDGE_CURVE ( 'NONE', #18, #38, #32, .T. ) ;
#16 = CARTESIAN_POINT ( 'NONE',  ( 0.000000000000000000, 0.000000000000000000, 5.000000000000000000 ) ) ;
#17 = ORIENTED_EDGE ( 'NONE', *, *, #118, .F. ) ;
#18 = VERTEX_POINT ( 'NONE', #174 ) ;
#19 = ORIENTED_EDGE ( 'NONE', *, *, #28, .F. ) ;
#20 = DIRECTION ( 'NONE',  ( -0.000000000000000000, -0.000000000000000000, -1.000000000000000000 ) ) ;
#21 = CLOSED_SHELL ( 'NONE', ( #188, #257, #236, #305, #199, #183, #263, #130, #245 ) ) ;
#22 = CC_DESIGN_APPROVAL ( #278, ( #268 ) ) ;
#23 = DIRECTION ( 'NONE',  ( 0.000000000000000000, 0.000000000000000000, 1.000000000000000000 ) ) ;
#24 = DIRECTION ( 'NONE',  ( 1.224646799147353207E-16, 1.000000000000000000, -0.000000000000000000 ) ) ;
#25 = CARTESIAN_POINT ( 'NONE',  ( 0.000000000000000000, 0.000000000000000000, 5.000000000000000000 ) ) ;
#26 = AXIS2_PLACEMENT_3D ( 'NONE', #201, #153, #126 ) ;
#27 = APPROVAL_PERSON_ORGANIZATION ( #148, #203, #215 ) ;
#28 = EDGE_CURVE ( 'NONE', #195, #18, #218, .T. ) ;
#29 = CYLINDRICAL_SURFACE ( 'NONE', #210, 5.500000000000000000 ) ;
#30 = DIRECTION ( 'NONE',  ( 0.000000000000000000, 0.000000000000000000, 1.000000000000000000 ) ) ;
#31 = LINE ( 'NONE', #253, #120 ) ;
#32 = CIRCLE ( 'NONE', #145, 0.1999999999999996503 ) ;
#33 = PERSON_AND_ORGANIZATION ( #160, #262 ) ;
#34 = CALENDAR_DATE ( 2022, 7, 7 ) ;
#35 = CC_DESIGN_PERSON_AND_ORGANIZATION_ASSIGNMENT ( #185, #75, ( #268 ) ) ;
#36 = APPROVAL_STATUS ( 'not_yet_approved' ) ;
#37 = SHAPE_DEFINITION_REPRESENTATION ( #293, #191 ) ;
#38 = VERTEX_POINT ( 'NONE', #43 ) ;
#39 = AXIS2_PLACEMENT_3D ( 'NONE', #124, #131, #155 ) ;
#40 = DIRECTION ( 'NONE',  ( 0.000000000000000000, 0.000000000000000000, 1.000000000000000000 ) ) ;
#41 = ORIENTED_EDGE ( 'NONE', *, *, #118, .T. ) ;
#42 = LINE ( 'NONE', #150, #284 ) ;
#43 = CARTESIAN_POINT ( 'NONE',  ( -5.699999999999999289, 6.980486755139912122E-16, 4.999999999999991118 ) ) ;
#44 = DIRECTION ( 'NONE',  ( -0.000000000000000000, -0.000000000000000000, -1.000000000000000000 ) ) ;
#45 = CIRCLE ( 'NONE', #66, 0.1999999999999996503 ) ;
#46 = DIRECTION ( 'NONE',  ( -0.000000000000000000, -0.000000000000000000, -1.000000000000000000 ) ) ;
#47 = DIRECTION ( 'NONE',  ( 1.000000000000000000, 0.000000000000000000, 0.000000000000000000 ) ) ;
#48 = CC_DESIGN_PERSON_AND_ORGANIZATION_ASSIGNMENT ( #73, #9, ( #149 ) ) ;
#49 = DIRECTION ( 'NONE',  ( -0.000000000000000000, -0.000000000000000000, -1.000000000000000000 ) ) ;
#50 = CARTESIAN_POINT ( 'NONE',  ( 5.500000000000000000, 6.735557395310442023E-16, 805.0000000000000000 ) ) ;
#51 = EDGE_CURVE ( 'NONE', #303, #65, #42, .T. ) ;
#52 = CARTESIAN_POINT ( 'NONE',  ( -8.000000000000000000, 0.000000000000000000, 5.000000000000000000 ) ) ;
#53 = FACE_OUTER_BOUND ( 'NONE', #298, .T. ) ;
#54 = APPROVAL_ROLE ( '' ) ;
#55 = AXIS2_PLACEMENT_3D ( 'NONE', #231, #69, #208 ) ;
#56 = CALENDAR_DATE ( 2022, 7, 7 ) ;
#57 = EDGE_CURVE ( 'NONE', #303, #195, #260, .T. ) ;
#58 = ORIENTED_EDGE ( 'NONE', *, *, #136, .T. ) ;
#59 = ORIENTED_EDGE ( 'NONE', *, *, #212, .F. ) ;
#60 = DIRECTION ( 'NONE',  ( 1.000000000000000000, 0.000000000000000000, -0.000000000000000000 ) ) ;
#61 = ORIENTED_EDGE ( 'NONE', *, *, #3, .T. ) ;
#62 = ORIENTED_EDGE ( 'NONE', *, *, #15, .F. ) ;
#63 = CARTESIAN_POINT ( 'NONE',  ( 0.000000000000000000, 0.000000000000000000, 805.0000000000000000 ) ) ;
#64 = ORIENTED_EDGE ( 'NONE', *, *, #74, .F. ) ;
#65 = VERTEX_POINT ( 'NONE', #169 ) ;
#66 = AXIS2_PLACEMENT_3D ( 'NONE', #172, #247, #127 ) ;
#67 = LOCAL_TIME ( 11, 47, 48.00000000000000000, #265 ) ;
#68 = EDGE_CURVE ( 'NONE', #275, #193, #270, .T. ) ;
#69 = DIRECTION ( 'NONE',  ( -0.000000000000000000, -0.000000000000000000, -1.000000000000000000 ) ) ;
#70 = DIRECTION ( 'NONE',  ( -1.000000000000000000, 0.000000000000000000, 0.000000000000000000 ) ) ;
#71 = DIRECTION ( 'NONE',  ( -0.000000000000000000, -0.000000000000000000, -1.000000000000000000 ) ) ;
#72 = DIRECTION ( 'NONE',  ( 0.000000000000000000, 0.000000000000000000, 1.000000000000000000 ) ) ;
#73 = PERSON_AND_ORGANIZATION ( #160, #262 ) ;
#74 = EDGE_CURVE ( 'NONE', #196, #275, #267, .T. ) ;
#75 = PERSON_AND_ORGANIZATION_ROLE ( 'classification_officer' ) ;
#76 = APPROVAL_ROLE ( '' ) ;
#77 = AXIS2_PLACEMENT_3D ( 'NONE', #171, #23, #60 ) ;
#78 = ORIENTED_EDGE ( 'NONE', *, *, #227, .F. ) ;
#79 = CARTESIAN_POINT ( 'NONE',  ( -5.500000000000000000, 0.000000000000000000, 805.0000000000000000 ) ) ;
#80 = FACE_OUTER_BOUND ( 'NONE', #194, .T. ) ;
#81 = ORIENTED_EDGE ( 'NONE', *, *, #227, .T. ) ;
#82 = AXIS2_PLACEMENT_3D ( 'NONE', #258, #134, #92 ) ;
#83 =( GEOMETRIC_REPRESENTATION_CONTEXT ( 3 ) GLOBAL_UNCERTAINTY_ASSIGNED_CONTEXT ( ( #274 ) ) GLOBAL_UNIT_ASSIGNED_CONTEXT ( ( #286, #252, #167 ) ) REPRESENTATION_CONTEXT ( 'NONE', 'WORKASPACE' ) );
#84 = CARTESIAN_POINT ( 'NONE',  ( 0.000000000000000000, 0.000000000000000000, 5.199999999999982414 ) ) ;
#85 = EDGE_LOOP ( 'NONE', ( #132, #86 ) ) ;
#86 = ORIENTED_EDGE ( 'NONE', *, *, #212, .T. ) ;
#87 = ORIENTED_EDGE ( 'NONE', *, *, #136, .F. ) ;
#88 = DIRECTION ( 'NONE',  ( 1.000000000000000000, 0.000000000000000000, 0.000000000000000000 ) ) ;
#89 = CC_DESIGN_DATE_AND_TIME_ASSIGNMENT ( #266, #264, ( #98 ) ) ;
#90 = CYLINDRICAL_SURFACE ( 'NONE', #106, 5.500000000000000000 ) ;
#91 = CARTESIAN_POINT ( 'NONE',  ( 0.000000000000000000, 0.000000000000000000, 0.000000000000000000 ) ) ;
#92 = DIRECTION ( 'NONE',  ( 1.000000000000000000, 0.000000000000000000, 0.000000000000000000 ) ) ;
#93 = FACE_OUTER_BOUND ( 'NONE', #175, .T. ) ;
#94 = AXIS2_PLACEMENT_3D ( 'NONE', #241, #40, #107 ) ;
#95 = CC_DESIGN_SECURITY_CLASSIFICATION ( #268, ( #302 ) ) ;
#96 = CARTESIAN_POINT ( 'NONE',  ( 0.000000000000000000, 0.000000000000000000, 0.000000000000000000 ) ) ;
#97 = CALENDAR_DATE ( 2022, 7, 7 ) ;
#98 = PRODUCT_DEFINITION ( 'NEZNÁMÝ', '', #302, #300 ) ;
#99 = DIRECTION ( 'NONE',  ( 0.000000000000000000, 0.000000000000000000, 1.000000000000000000 ) ) ;
#100 = EDGE_CURVE ( 'NONE', #65, #197, #45, .T. ) ;
#101 = ORIENTED_EDGE ( 'NONE', *, *, #57, .F. ) ;
#102 = ORIENTED_EDGE ( 'NONE', *, *, #28, .T. ) ;
#103 = ORIENTED_EDGE ( 'NONE', *, *, #68, .T. ) ;
#104 = EDGE_LOOP ( 'NONE', ( #243, #87, #102, #41 ) ) ;
#105 = VECTOR ( 'NONE', #46, 1000.000000000000000 ) ;
#106 = AXIS2_PLACEMENT_3D ( 'NONE', #139, #159, #115 ) ;
#107 = DIRECTION ( 'NONE',  ( 1.000000000000000000, 0.000000000000000000, 0.000000000000000000 ) ) ;
#108 = ORIENTED_EDGE ( 'NONE', *, *, #7, .T. ) ;
#109 = ORIENTED_EDGE ( 'NONE', *, *, #51, .T. ) ;
#110 = CYLINDRICAL_SURFACE ( 'NONE', #10, 8.000000000000000000 ) ;
#111 = FACE_OUTER_BOUND ( 'NONE', #272, .T. ) ;
#112 = CIRCLE ( 'NONE', #254, 5.699999999999999289 ) ;
#113 = CARTESIAN_POINT ( 'NONE',  ( 0.000000000000000000, 0.000000000000000000, 5.199999999999982414 ) ) ;
#114 = DIRECTION ( 'NONE',  ( -0.000000000000000000, -0.000000000000000000, -1.000000000000000000 ) ) ;
#115 = DIRECTION ( 'NONE',  ( -1.000000000000000000, 0.000000000000000000, 0.000000000000000000 ) ) ;
#116 = CIRCLE ( 'NONE', #26, 5.500000000000000000 ) ;
#117 = DATE_AND_TIME ( #34, #67 ) ;
#118 = EDGE_CURVE ( 'NONE', #18, #65, #233, .T. ) ;
#119 = APPROVAL_STATUS ( 'not_yet_approved' ) ;
#120 = VECTOR ( 'NONE', #114, 1000.000000000000000 ) ;
#121 = CARTESIAN_POINT ( 'NONE',  ( 0.000000000000000000, 0.000000000000000000, 0.000000000000000000 ) ) ;
#122 = PERSON_AND_ORGANIZATION ( #160, #262 ) ;
#123 = ORIENTED_EDGE ( 'NONE', *, *, #74, .T. ) ;
#124 = CARTESIAN_POINT ( 'NONE',  ( 0.000000000000000000, 0.000000000000000000, 5.000000000000000000 ) ) ;
#125 = CC_DESIGN_DATE_AND_TIME_ASSIGNMENT ( #290, #292, ( #268 ) ) ;
#126 = DIRECTION ( 'NONE',  ( 1.000000000000000000, 0.000000000000000000, 0.000000000000000000 ) ) ;
#127 = DIRECTION ( 'NONE',  ( 0.000000000000000000, 0.000000000000000000, -1.000000000000000000 ) ) ;
#128 = APPLICATION_CONTEXT ( 'configuration controlled 3d designs of mechanical parts and assemblies' ) ;
#129 = ORIENTED_EDGE ( 'NONE', *, *, #250, .T. ) ;
#130 = ADVANCED_FACE ( 'NONE', ( #80 ), #198, .T. ) ;
#131 = DIRECTION ( 'NONE',  ( -0.000000000000000000, -0.000000000000000000, -1.000000000000000000 ) ) ;
#132 = ORIENTED_EDGE ( 'NONE', *, *, #12, .T. ) ;
#133 = CARTESIAN_POINT ( 'NONE',  ( -5.500000000000000000, 0.000000000000000000, 805.0000000000000000 ) ) ;
#134 = DIRECTION ( 'NONE',  ( 0.000000000000000000, 0.000000000000000000, 1.000000000000000000 ) ) ;
#135 = TOROIDAL_SURFACE ( 'NONE', #82, 5.699999999999999289, 0.2000000000000000111 ) ;
#136 = EDGE_CURVE ( 'NONE', #195, #303, #116, .T. ) ;
#137 = FACE_OUTER_BOUND ( 'NONE', #224, .T. ) ;
#138 = DIRECTION ( 'NONE',  ( 1.000000000000000000, 0.000000000000000000, -0.000000000000000000 ) ) ;
#139 = CARTESIAN_POINT ( 'NONE',  ( 0.000000000000000000, 0.000000000000000000, 805.0000000000000000 ) ) ;
#140 = VECTOR ( 'NONE', #44, 1000.000000000000000 ) ;
#141 = APPROVAL_PERSON_ORGANIZATION ( #238, #278, #76 ) ;
#142 = APPROVAL_DATE_TIME ( #117, #203 ) ;
#143 = PERSON_AND_ORGANIZATION_ROLE ( 'creator' ) ;
#144 = APPLICATION_PROTOCOL_DEFINITION ( 'international standard', 'config_control_design', 1994, #151 ) ;
#145 = AXIS2_PLACEMENT_3D ( 'NONE', #176, #24, #273 ) ;
#146 = CC_DESIGN_PERSON_AND_ORGANIZATION_ASSIGNMENT ( #33, #164, ( #98 ) ) ;
#147 = APPROVAL_DATE_TIME ( #216, #271 ) ;
#148 = PERSON_AND_ORGANIZATION ( #160, #262 ) ;
#149 = PRODUCT ( '6cef', '6cef', '', ( #237 ) ) ;
#150 = CARTESIAN_POINT ( 'NONE',  ( 5.500000000000000000, 6.735557395310442023E-16, 805.0000000000000000 ) ) ;
#151 = APPLICATION_CONTEXT ( 'configuration controlled 3d designs of mechanical parts and assemblies' ) ;
#152 = APPROVAL_PERSON_ORGANIZATION ( #187, #271, #54 ) ;
#153 = DIRECTION ( 'NONE',  ( 0.000000000000000000, 0.000000000000000000, 1.000000000000000000 ) ) ;
#154 = ORIENTED_EDGE ( 'NONE', *, *, #57, .T. ) ;
#155 = DIRECTION ( 'NONE',  ( 1.000000000000000000, 0.000000000000000000, 0.000000000000000000 ) ) ;
#156 = ORIENTED_EDGE ( 'NONE', *, *, #68, .F. ) ;
#157 = ORIENTED_EDGE ( 'NONE', *, *, #168, .T. ) ;
#158 = CC_DESIGN_PERSON_AND_ORGANIZATION_ASSIGNMENT ( #122, #143, ( #302 ) ) ;
#159 = DIRECTION ( 'NONE',  ( -0.000000000000000000, -0.000000000000000000, -1.000000000000000000 ) ) ;
#160 = PERSON ( 'NEURÈENÝ', 'NEURÈENÝ', 'NEURÈENÝ', ('NEURÈENÝ'), ('NEURÈENÝ'), ('NEURÈENÝ') ) ;
#161 = DIRECTION ( 'NONE',  ( 0.000000000000000000, 0.000000000000000000, 1.000000000000000000 ) ) ;
#162 = FACE_OUTER_BOUND ( 'NONE', #170, .T. ) ;
#163 = AXIS2_PLACEMENT_3D ( 'NONE', #222, #304, #244 ) ;
#164 = PERSON_AND_ORGANIZATION_ROLE ( 'creator' ) ;
#165 = COORDINATED_UNIVERSAL_TIME_OFFSET ( 1, 0, .AHEAD. ) ;
#166 = COORDINATED_UNIVERSAL_TIME_OFFSET ( 1, 0, .AHEAD. ) ;
#167 =( NAMED_UNIT ( * ) SI_UNIT ( $, .STERADIAN. ) SOLID_ANGLE_UNIT ( ) );
#168 = EDGE_CURVE ( 'NONE', #275, #196, #14, .T. ) ;
#169 = CARTESIAN_POINT ( 'NONE',  ( 5.500000000000000000, 6.735557395310442023E-16, 5.199999999999982414 ) ) ;
#170 = EDGE_LOOP ( 'NONE', ( #62, #192, #240, #59 ) ) ;
#171 = CARTESIAN_POINT ( 'NONE',  ( 0.000000000000000000, 0.000000000000000000, 805.0000000000000000 ) ) ;
#172 = CARTESIAN_POINT ( 'NONE',  ( 5.699999999999999289, 0.000000000000000000, 5.199999999999982414 ) ) ;
#173 = MANIFOLD_SOLID_BREP ( 'Zaoblit1', #21 ) ;
#174 = CARTESIAN_POINT ( 'NONE',  ( -5.500000000000000000, 0.000000000000000000, 5.199999999999982414 ) ) ;
#175 = EDGE_LOOP ( 'NONE', ( #299, #78 ) ) ;
#176 = CARTESIAN_POINT ( 'NONE',  ( -5.699999999999999289, 6.980486755139912122E-16, 5.199999999999982414 ) ) ;
#177 = TOROIDAL_SURFACE ( 'NONE', #217, 5.699999999999999289, 0.2000000000000000111 ) ;
#178 = CC_DESIGN_PERSON_AND_ORGANIZATION_ASSIGNMENT ( #291, #288, ( #302 ) ) ;
#179 = CARTESIAN_POINT ( 'NONE',  ( 8.000000000000000000, 9.797174393178825657E-16, 0.000000000000000000 ) ) ;
#180 = DIRECTION ( 'NONE',  ( 1.000000000000000000, 0.000000000000000000, 0.000000000000000000 ) ) ;
#181 = AXIS2_PLACEMENT_3D ( 'NONE', #84, #276, #279 ) ;
#182 = CC_DESIGN_APPROVAL ( #203, ( #98 ) ) ;
#183 = ADVANCED_FACE ( 'NONE', ( #93 ), #209, .F. ) ;
#184 = CARTESIAN_POINT ( 'NONE',  ( -8.000000000000000000, 0.000000000000000000, 0.000000000000000000 ) ) ;
#185 = PERSON_AND_ORGANIZATION ( #160, #262 ) ;
#186 = AXIS2_PLACEMENT_3D ( 'NONE', #96, #234, #180 ) ;
#187 = PERSON_AND_ORGANIZATION ( #160, #262 ) ;
#188 = ADVANCED_FACE ( 'NONE', ( #111 ), #177, .F. ) ;
#189 = CALENDAR_DATE ( 2022, 7, 7 ) ;
#190 = DATE_AND_TIME ( #97, #235 ) ;
#191 = ADVANCED_BREP_SHAPE_REPRESENTATION ( '6cef', ( #173, #296 ), #83 ) ;
#192 = ORIENTED_EDGE ( 'NONE', *, *, #7, .F. ) ;
#193 = VERTEX_POINT ( 'NONE', #179 ) ;
#194 = EDGE_LOOP ( 'NONE', ( #58, #154 ) ) ;
#195 = VERTEX_POINT ( 'NONE', #133 ) ;
#196 = VERTEX_POINT ( 'NONE', #52 ) ;
#197 = VERTEX_POINT ( 'NONE', #228 ) ;
#198 = PLANE ( 'NONE',  #77 ) ;
#199 = ADVANCED_FACE ( 'NONE', ( #207, #53 ), #206, .T. ) ;
#200 = EDGE_LOOP ( 'NONE', ( #301, #103, #81, #220 ) ) ;
#201 = CARTESIAN_POINT ( 'NONE',  ( 0.000000000000000000, 0.000000000000000000, 805.0000000000000000 ) ) ;
#202 = CARTESIAN_POINT ( 'NONE',  ( 0.000000000000000000, 0.000000000000000000, 805.0000000000000000 ) ) ;
#203 = APPROVAL ( #213, 'NEURÈENÝ' ) ;
#204 = AXIS2_PLACEMENT_3D ( 'NONE', #307, #219, #88 ) ;
#205 = LOCAL_TIME ( 11, 47, 48.00000000000000000, #261 ) ;
#206 = PLANE ( 'NONE',  #242 ) ;
#207 = FACE_BOUND ( 'NONE', #85, .T. ) ;
#208 = DIRECTION ( 'NONE',  ( -1.000000000000000000, 0.000000000000000000, 0.000000000000000000 ) ) ;
#209 = PLANE ( 'NONE',  #214 ) ;
#210 = AXIS2_PLACEMENT_3D ( 'NONE', #202, #283, #287 ) ;
#211 = CALENDAR_DATE ( 2022, 7, 7 ) ;
#212 = EDGE_CURVE ( 'NONE', #38, #197, #112, .T. ) ;
#213 = APPROVAL_STATUS ( 'not_yet_approved' ) ;
#214 = AXIS2_PLACEMENT_3D ( 'NONE', #91, #72, #138 ) ;
#215 = APPROVAL_ROLE ( '' ) ;
#216 = DATE_AND_TIME ( #211, #205 ) ;
#217 = AXIS2_PLACEMENT_3D ( 'NONE', #113, #161, #256 ) ;
#218 = LINE ( 'NONE', #79, #105 ) ;
#219 = DIRECTION ( 'NONE',  ( 0.000000000000000000, 0.000000000000000000, 1.000000000000000000 ) ) ;
#220 = ORIENTED_EDGE ( 'NONE', *, *, #250, .F. ) ;
#221 = PRODUCT_RELATED_PRODUCT_CATEGORY ( 'detail', '', ( #149 ) ) ;
#222 = CARTESIAN_POINT ( 'NONE',  ( 0.000000000000000000, 0.000000000000000000, 0.000000000000000000 ) ) ;
#223 = AXIS2_PLACEMENT_3D ( 'NONE', #63, #226, #225 ) ;
#224 = EDGE_LOOP ( 'NONE', ( #156, #64, #129, #61 ) ) ;
#225 = DIRECTION ( 'NONE',  ( 1.000000000000000000, 0.000000000000000000, 0.000000000000000000 ) ) ;
#226 = DIRECTION ( 'NONE',  ( 0.000000000000000000, 0.000000000000000000, 1.000000000000000000 ) ) ;
#227 = EDGE_CURVE ( 'NONE', #193, #294, #289, .T. ) ;
#228 = CARTESIAN_POINT ( 'NONE',  ( 5.699999999999999289, 0.000000000000000000, 4.999999999999991118 ) ) ;
#229 = AXIS2_PLACEMENT_3D ( 'NONE', #16, #269, #251 ) ;
#230 = FACE_OUTER_BOUND ( 'NONE', #246, .T. ) ;
#231 = CARTESIAN_POINT ( 'NONE',  ( 0.000000000000000000, 0.000000000000000000, 5.000000000000000000 ) ) ;
#232 = CARTESIAN_POINT ( 'NONE',  ( 0.000000000000000000, 0.000000000000000000, 5.000000000000000000 ) ) ;
#233 = CIRCLE ( 'NONE', #94, 5.500000000000000000 ) ;
#234 = DIRECTION ( 'NONE',  ( 0.000000000000000000, 0.000000000000000000, 1.000000000000000000 ) ) ;
#235 = LOCAL_TIME ( 11, 47, 48.00000000000000000, #166 ) ;
#236 = ADVANCED_FACE ( 'NONE', ( #4 ), #110, .T. ) ;
#237 = MECHANICAL_CONTEXT ( 'NONE', #128, 'mechanical' ) ;
#238 = PERSON_AND_ORGANIZATION ( #160, #262 ) ;
#239 = APPROVAL_DATE_TIME ( #190, #278 ) ;
#240 = ORIENTED_EDGE ( 'NONE', *, *, #100, .T. ) ;
#241 = CARTESIAN_POINT ( 'NONE',  ( 0.000000000000000000, 0.000000000000000000, 5.199999999999982414 ) ) ;
#242 = AXIS2_PLACEMENT_3D ( 'NONE', #25, #30, #259 ) ;
#243 = ORIENTED_EDGE ( 'NONE', *, *, #51, .F. ) ;
#244 = DIRECTION ( 'NONE',  ( 1.000000000000000000, 0.000000000000000000, 0.000000000000000000 ) ) ;
#245 = ADVANCED_FACE ( 'NONE', ( #162 ), #135, .F. ) ;
#246 = EDGE_LOOP ( 'NONE', ( #101, #109, #108, #19 ) ) ;
#247 = DIRECTION ( 'NONE',  ( 0.000000000000000000, -1.000000000000000000, 0.000000000000000000 ) ) ;
#248 = CARTESIAN_POINT ( 'NONE',  ( 8.000000000000000000, 9.797174393178825657E-16, 5.000000000000000000 ) ) ;
#249 = LOCAL_TIME ( 11, 47, 48.00000000000000000, #165 ) ;
#250 = EDGE_CURVE ( 'NONE', #196, #294, #31, .T. ) ;
#251 = DIRECTION ( 'NONE',  ( 1.000000000000000000, 0.000000000000000000, 0.000000000000000000 ) ) ;
#252 =( NAMED_UNIT ( * ) PLANE_ANGLE_UNIT ( ) SI_UNIT ( $, .RADIAN. ) );
#253 = CARTESIAN_POINT ( 'NONE',  ( -8.000000000000000000, 0.000000000000000000, 5.000000000000000000 ) ) ;
#254 = AXIS2_PLACEMENT_3D ( 'NONE', #232, #71, #47 ) ;
#255 = LOCAL_TIME ( 11, 47, 48.00000000000000000, #295 ) ;
#256 = DIRECTION ( 'NONE',  ( 1.000000000000000000, 0.000000000000000000, 0.000000000000000000 ) ) ;
#257 = ADVANCED_FACE ( 'NONE', ( #230 ), #90, .T. ) ;
#258 = CARTESIAN_POINT ( 'NONE',  ( 0.000000000000000000, 0.000000000000000000, 5.199999999999982414 ) ) ;
#259 = DIRECTION ( 'NONE',  ( 1.000000000000000000, 0.000000000000000000, -0.000000000000000000 ) ) ;
#260 = CIRCLE ( 'NONE', #223, 5.500000000000000000 ) ;
#261 = COORDINATED_UNIVERSAL_TIME_OFFSET ( 1, 0, .AHEAD. ) ;
#262 = ORGANIZATION ( 'NEURÈENÝ', 'NEURÈENÝ', '' ) ;
#263 = ADVANCED_FACE ( 'NONE', ( #6 ), #29, .T. ) ;
#264 = DATE_TIME_ROLE ( 'creation_date' ) ;
#265 = COORDINATED_UNIVERSAL_TIME_OFFSET ( 1, 0, .AHEAD. ) ;
#266 = DATE_AND_TIME ( #56, #255 ) ;
#267 = CIRCLE ( 'NONE', #229, 8.000000000000000000 ) ;
#268 = SECURITY_CLASSIFICATION ( '', '', #11 ) ;
#269 = DIRECTION ( 'NONE',  ( 0.000000000000000000, 0.000000000000000000, 1.000000000000000000 ) ) ;
#270 = LINE ( 'NONE', #248, #140 ) ;
#271 = APPROVAL ( #119, 'NEURÈENÝ' ) ;
#272 = EDGE_LOOP ( 'NONE', ( #17, #297, #306, #277 ) ) ;
#273 = DIRECTION ( 'NONE',  ( -1.000000000000000000, 1.224646799147353454E-16, 0.000000000000000000 ) ) ;
#274 = UNCERTAINTY_MEASURE_WITH_UNIT (LENGTH_MEASURE( 1.000000000000000082E-05 ), #286, 'distance_accuracy_value', 'NONE');
#275 = VERTEX_POINT ( 'NONE', #1 ) ;
#276 = DIRECTION ( 'NONE',  ( 0.000000000000000000, 0.000000000000000000, 1.000000000000000000 ) ) ;
#277 = ORIENTED_EDGE ( 'NONE', *, *, #100, .F. ) ;
#278 = APPROVAL ( #36, 'NEURÈENÝ' ) ;
#279 = DIRECTION ( 'NONE',  ( 1.000000000000000000, 0.000000000000000000, 0.000000000000000000 ) ) ;
#280 = CC_DESIGN_APPROVAL ( #271, ( #302 ) ) ;
#281 = CYLINDRICAL_SURFACE ( 'NONE', #55, 8.000000000000000000 ) ;
#282 = CARTESIAN_POINT ( 'NONE',  ( 0.000000000000000000, 0.000000000000000000, 5.000000000000000000 ) ) ;
#283 = DIRECTION ( 'NONE',  ( -0.000000000000000000, -0.000000000000000000, -1.000000000000000000 ) ) ;
#284 = VECTOR ( 'NONE', #20, 1000.000000000000000 ) ;
#285 = CIRCLE ( 'NONE', #163, 8.000000000000000000 ) ;
#286 =( LENGTH_UNIT ( ) NAMED_UNIT ( * ) SI_UNIT ( .MILLI., .METRE. ) );
#287 = DIRECTION ( 'NONE',  ( -1.000000000000000000, 0.000000000000000000, 0.000000000000000000 ) ) ;
#288 = PERSON_AND_ORGANIZATION_ROLE ( 'design_supplier' ) ;
#289 = CIRCLE ( 'NONE', #186, 8.000000000000000000 ) ;
#290 = DATE_AND_TIME ( #189, #249 ) ;
#291 = PERSON_AND_ORGANIZATION ( #160, #262 ) ;
#292 = DATE_TIME_ROLE ( 'classification_date' ) ;
#293 = PRODUCT_DEFINITION_SHAPE ( 'NONE', 'NONE',  #98 ) ;
#294 = VERTEX_POINT ( 'NONE', #184 ) ;
#295 = COORDINATED_UNIVERSAL_TIME_OFFSET ( 1, 0, .AHEAD. ) ;
#296 = AXIS2_PLACEMENT_3D ( 'NONE', #121, #99, #13 ) ;
#297 = ORIENTED_EDGE ( 'NONE', *, *, #15, .T. ) ;
#298 = EDGE_LOOP ( 'NONE', ( #123, #157 ) ) ;
#299 = ORIENTED_EDGE ( 'NONE', *, *, #3, .F. ) ;
#300 = DESIGN_CONTEXT ( 'detailed design', #151, 'design' ) ;
#301 = ORIENTED_EDGE ( 'NONE', *, *, #168, .F. ) ;
#302 = PRODUCT_DEFINITION_FORMATION_WITH_SPECIFIED_SOURCE ( 'LIBOVOLNÝ', '', #149, .NOT_KNOWN. ) ;
#303 = VERTEX_POINT ( 'NONE', #50 ) ;
#304 = DIRECTION ( 'NONE',  ( 0.000000000000000000, 0.000000000000000000, 1.000000000000000000 ) ) ;
#305 = ADVANCED_FACE ( 'NONE', ( #137 ), #281, .T. ) ;
#306 = ORIENTED_EDGE ( 'NONE', *, *, #12, .F. ) ;
#307 = CARTESIAN_POINT ( 'NONE',  ( 0.000000000000000000, 0.000000000000000000, 5.000000000000000000 ) ) ;
ENDSEC;
END-ISO-10303-21;
