ISO-10303-21;
HEADER;
FILE_DESCRIPTION (( 'STEP AP203' ),
    '1' );
FILE_NAME ('d492.STEP',
    '2022-07-07T09:39:04',
    ( '' ),
    ( '' ),
    'SwSTEP 2.0',
    'SolidWorks 2019',
    '' );
FILE_SCHEMA (( 'CONFIG_CONTROL_DESIGN' ));
ENDSEC;

DATA;
#1 = DIRECTION ( 'NONE',  ( -0.000000000000000000, -0.000000000000000000, -1.000000000000000000 ) ) ;
#2 = CIRCLE ( 'NONE', #44, 8.000000000000000000 ) ;
#3 = CARTESIAN_POINT ( 'NONE',  ( -8.200000000000001066, 1.004210375300829674E-15, 7.199999999999998401 ) ) ;
#4 = DIRECTION ( 'NONE',  ( -0.000000000000000000, -0.000000000000000000, -1.000000000000000000 ) ) ;
#5 = CARTESIAN_POINT ( 'NONE',  ( 8.200000000000001066, 0.000000000000000000, 6.999999999999999112 ) ) ;
#6 = CIRCLE ( 'NONE', #14, 8.000000000000000000 ) ;
#7 = AXIS2_PLACEMENT_3D ( 'NONE', #190, #100, #285 ) ;
#8 = FACE_OUTER_BOUND ( 'NONE', #232, .T. ) ;
#9 = EDGE_CURVE ( 'NONE', #234, #262, #6, .T. ) ;
#10 = CARTESIAN_POINT ( 'NONE',  ( 0.000000000000000000, 0.000000000000000000, 132.0000000000000000 ) ) ;
#11 = DIRECTION ( 'NONE',  ( -0.000000000000000000, -0.000000000000000000, -1.000000000000000000 ) ) ;
#12 = CARTESIAN_POINT ( 'NONE',  ( 11.00000000000000000, 1.347111479062088405E-15, 7.000000000000000000 ) ) ;
#13 = DIRECTION ( 'NONE',  ( 0.000000000000000000, 0.000000000000000000, 1.000000000000000000 ) ) ;
#14 = AXIS2_PLACEMENT_3D ( 'NONE', #211, #227, #96 ) ;
#15 = ORIENTED_EDGE ( 'NONE', *, *, #91, .T. ) ;
#16 = AXIS2_PLACEMENT_3D ( 'NONE', #287, #81, #27 ) ;
#17 = PERSON_AND_ORGANIZATION_ROLE ( 'creator' ) ;
#18 = EDGE_LOOP ( 'NONE', ( #26, #207, #72, #45 ) ) ;
#19 = DATE_TIME_ROLE ( 'classification_date' ) ;
#20 = ORIENTED_EDGE ( 'NONE', *, *, #166, .F. ) ;
#21 = DATE_TIME_ROLE ( 'creation_date' ) ;
#22 = ORIENTED_EDGE ( 'NONE', *, *, #30, .T. ) ;
#23 = AXIS2_PLACEMENT_3D ( 'NONE', #148, #268, #29 ) ;
#24 = CC_DESIGN_APPROVAL ( #92, ( #34 ) ) ;
#25 = COORDINATED_UNIVERSAL_TIME_OFFSET ( 1, 0, .AHEAD. ) ;
#26 = ORIENTED_EDGE ( 'NONE', *, *, #147, .F. ) ;
#27 = DIRECTION ( 'NONE',  ( 0.000000000000000000, 0.000000000000000000, -1.000000000000000000 ) ) ;
#28 = DIRECTION ( 'NONE',  ( -1.000000000000000000, 0.000000000000000000, 0.000000000000000000 ) ) ;
#29 = DIRECTION ( 'NONE',  ( 1.000000000000000000, 0.000000000000000000, 0.000000000000000000 ) ) ;
#30 = EDGE_CURVE ( 'NONE', #279, #263, #105, .T. ) ;
#31 = DIRECTION ( 'NONE',  ( 0.000000000000000000, 0.000000000000000000, 1.000000000000000000 ) ) ;
#32 = CARTESIAN_POINT ( 'NONE',  ( -8.000000000000000000, 0.000000000000000000, 132.0000000000000000 ) ) ;
#33 = AXIS2_PLACEMENT_3D ( 'NONE', #252, #11, #201 ) ;
#34 = SECURITY_CLASSIFICATION ( '', '', #120 ) ;
#35 = DIRECTION ( 'NONE',  ( -0.000000000000000000, -0.000000000000000000, -1.000000000000000000 ) ) ;
#36 = ADVANCED_FACE ( 'NONE', ( #158 ), #138, .F. ) ;
#37 = PERSON_AND_ORGANIZATION ( #277, #302 ) ;
#38 = DIRECTION ( 'NONE',  ( 1.000000000000000000, 0.000000000000000000, 0.000000000000000000 ) ) ;
#39 = PRODUCT ( 'd492', 'd492', '', ( #153 ) ) ;
#40 = FACE_OUTER_BOUND ( 'NONE', #184, .T. ) ;
#41 = LINE ( 'NONE', #12, #202 ) ;
#42 = PERSON_AND_ORGANIZATION_ROLE ( 'design_supplier' ) ;
#43 = VERTEX_POINT ( 'NONE', #231 ) ;
#44 = AXIS2_PLACEMENT_3D ( 'NONE', #198, #294, #175 ) ;
#45 = ORIENTED_EDGE ( 'NONE', *, *, #82, .F. ) ;
#46 = LOCAL_TIME ( 11, 39, 4.000000000000000000, #25 ) ;
#47 = ADVANCED_BREP_SHAPE_REPRESENTATION ( 'd492', ( #73, #292 ), #85 ) ;
#48 = ADVANCED_FACE ( 'NONE', ( #80 ), #108, .T. ) ;
#49 = PRODUCT_RELATED_PRODUCT_CATEGORY ( 'detail', '', ( #39 ) ) ;
#50 = SHAPE_DEFINITION_REPRESENTATION ( #248, #47 ) ;
#51 = ORIENTED_EDGE ( 'NONE', *, *, #280, .F. ) ;
#52 = EDGE_LOOP ( 'NONE', ( #299, #15 ) ) ;
#53 = VERTEX_POINT ( 'NONE', #265 ) ;
#54 = AXIS2_PLACEMENT_3D ( 'NONE', #245, #219, #289 ) ;
#55 = DIRECTION ( 'NONE',  ( -0.000000000000000000, -0.000000000000000000, -1.000000000000000000 ) ) ;
#56 = CYLINDRICAL_SURFACE ( 'NONE', #33, 11.00000000000000000 ) ;
#57 = FACE_BOUND ( 'NONE', #52, .T. ) ;
#58 = EDGE_CURVE ( 'NONE', #164, #53, #176, .T. ) ;
#59 = CARTESIAN_POINT ( 'NONE',  ( 0.000000000000000000, 0.000000000000000000, 7.000000000000000000 ) ) ;
#60 = PLANE ( 'NONE',  #144 ) ;
#61 = APPLICATION_PROTOCOL_DEFINITION ( 'international standard', 'config_control_design', 1994, #209 ) ;
#62 = AXIS2_PLACEMENT_3D ( 'NONE', #136, #199, #93 ) ;
#63 = DIRECTION ( 'NONE',  ( 0.000000000000000000, 0.000000000000000000, 1.000000000000000000 ) ) ;
#64 = CC_DESIGN_PERSON_AND_ORGANIZATION_ASSIGNMENT ( #210, #42, ( #68 ) ) ;
#65 =( NAMED_UNIT ( * ) PLANE_ANGLE_UNIT ( ) SI_UNIT ( $, .RADIAN. ) );
#66 = APPROVAL_DATE_TIME ( #271, #162 ) ;
#67 = VECTOR ( 'NONE', #151, 1000.000000000000000 ) ;
#68 = PRODUCT_DEFINITION_FORMATION_WITH_SPECIFIED_SOURCE ( 'LIBOVOLNÝ', '', #39, .NOT_KNOWN. ) ;
#69 = DIRECTION ( 'NONE',  ( 1.000000000000000000, 0.000000000000000000, 0.000000000000000000 ) ) ;
#70 = EDGE_CURVE ( 'NONE', #255, #43, #214, .T. ) ;
#71 = PERSON_AND_ORGANIZATION ( #277, #302 ) ;
#72 = ORIENTED_EDGE ( 'NONE', *, *, #306, .T. ) ;
#73 = MANIFOLD_SOLID_BREP ( 'Zaoblit1', #156 ) ;
#74 = ORIENTED_EDGE ( 'NONE', *, *, #166, .T. ) ;
#75 = VECTOR ( 'NONE', #55, 1000.000000000000000 ) ;
#76 = AXIS2_PLACEMENT_3D ( 'NONE', #298, #179, #69 ) ;
#77 = VERTEX_POINT ( 'NONE', #32 ) ;
#78 = AXIS2_PLACEMENT_3D ( 'NONE', #223, #35, #155 ) ;
#79 = APPROVAL_PERSON_ORGANIZATION ( #71, #114, #178 ) ;
#80 = FACE_OUTER_BOUND ( 'NONE', #18, .T. ) ;
#81 = DIRECTION ( 'NONE',  ( 0.000000000000000000, -1.000000000000000000, 0.000000000000000000 ) ) ;
#82 = EDGE_CURVE ( 'NONE', #77, #234, #244, .T. ) ;
#83 = CC_DESIGN_PERSON_AND_ORGANIZATION_ASSIGNMENT ( #296, #160, ( #34 ) ) ;
#84 = PLANE ( 'NONE',  #127 ) ;
#85 =( GEOMETRIC_REPRESENTATION_CONTEXT ( 3 ) GLOBAL_UNCERTAINTY_ASSIGNED_CONTEXT ( ( #250 ) ) GLOBAL_UNIT_ASSIGNED_CONTEXT ( ( #87, #65, #221 ) ) REPRESENTATION_CONTEXT ( 'NONE', 'WORKASPACE' ) );
#86 = DIRECTION ( 'NONE',  ( 1.000000000000000000, 0.000000000000000000, -0.000000000000000000 ) ) ;
#87 =( LENGTH_UNIT ( ) NAMED_UNIT ( * ) SI_UNIT ( .MILLI., .METRE. ) );
#88 = AXIS2_PLACEMENT_3D ( 'NONE', #215, #194, #150 ) ;
#89 = CALENDAR_DATE ( 2022, 7, 7 ) ;
#90 = APPLICATION_PROTOCOL_DEFINITION ( 'international standard', 'config_control_design', 1994, #254 ) ;
#91 = EDGE_CURVE ( 'NONE', #53, #164, #257, .T. ) ;
#92 = APPROVAL ( #226, 'NEURÈENÝ' ) ;
#93 = DIRECTION ( 'NONE',  ( -1.000000000000000000, 0.000000000000000000, 0.000000000000000000 ) ) ;
#94 = PERSON_AND_ORGANIZATION ( #277, #302 ) ;
#95 = ADVANCED_FACE ( 'NONE', ( #106 ), #84, .F. ) ;
#96 = DIRECTION ( 'NONE',  ( 1.000000000000000000, 0.000000000000000000, 0.000000000000000000 ) ) ;
#97 = ORIENTED_EDGE ( 'NONE', *, *, #91, .F. ) ;
#98 = ORIENTED_EDGE ( 'NONE', *, *, #251, .F. ) ;
#99 = ORIENTED_EDGE ( 'NONE', *, *, #284, .T. ) ;
#100 = DIRECTION ( 'NONE',  ( 0.000000000000000000, 0.000000000000000000, 1.000000000000000000 ) ) ;
#101 = LOCAL_TIME ( 11, 39, 4.000000000000000000, #230 ) ;
#102 = EDGE_CURVE ( 'NONE', #234, #53, #240, .T. ) ;
#103 = DIRECTION ( 'NONE',  ( 1.000000000000000000, 0.000000000000000000, 0.000000000000000000 ) ) ;
#104 = DIRECTION ( 'NONE',  ( 1.000000000000000000, 0.000000000000000000, 0.000000000000000000 ) ) ;
#105 = CIRCLE ( 'NONE', #76, 11.00000000000000000 ) ;
#106 = FACE_OUTER_BOUND ( 'NONE', #281, .T. ) ;
#107 = AXIS2_PLACEMENT_3D ( 'NONE', #267, #169, #239 ) ;
#108 = CYLINDRICAL_SURFACE ( 'NONE', #307, 8.000000000000000000 ) ;
#109 = FACE_OUTER_BOUND ( 'NONE', #259, .T. ) ;
#110 = AXIS2_PLACEMENT_3D ( 'NONE', #3, #288, #189 ) ;
#111 = TOROIDAL_SURFACE ( 'NONE', #228, 8.200000000000001066, 0.2000000000000000111 ) ;
#112 = CC_DESIGN_APPROVAL ( #114, ( #68 ) ) ;
#113 = DIRECTION ( 'NONE',  ( -0.000000000000000000, -0.000000000000000000, -1.000000000000000000 ) ) ;
#114 = APPROVAL ( #204, 'NEURÈENÝ' ) ;
#115 = CYLINDRICAL_SURFACE ( 'NONE', #62, 11.00000000000000000 ) ;
#116 = CIRCLE ( 'NONE', #187, 8.000000000000000000 ) ;
#117 = CC_DESIGN_APPROVAL ( #162, ( #191 ) ) ;
#118 = ORIENTED_EDGE ( 'NONE', *, *, #128, .F. ) ;
#119 = ORIENTED_EDGE ( 'NONE', *, *, #182, .F. ) ;
#120 = SECURITY_CLASSIFICATION_LEVEL ( 'unclassified' ) ;
#121 = ORIENTED_EDGE ( 'NONE', *, *, #70, .F. ) ;
#122 = APPROVAL_ROLE ( '' ) ;
#123 = ORIENTED_EDGE ( 'NONE', *, *, #82, .T. ) ;
#124 = COORDINATED_UNIVERSAL_TIME_OFFSET ( 1, 0, .AHEAD. ) ;
#125 = EDGE_LOOP ( 'NONE', ( #141, #185, #300, #20 ) ) ;
#126 = DIRECTION ( 'NONE',  ( -0.000000000000000000, -0.000000000000000000, -1.000000000000000000 ) ) ;
#127 = AXIS2_PLACEMENT_3D ( 'NONE', #133, #31, #238 ) ;
#128 = EDGE_CURVE ( 'NONE', #263, #279, #274, .T. ) ;
#129 = DIRECTION ( 'NONE',  ( -0.000000000000000000, -0.000000000000000000, -1.000000000000000000 ) ) ;
#130 = CC_DESIGN_SECURITY_CLASSIFICATION ( #34, ( #68 ) ) ;
#131 = CARTESIAN_POINT ( 'NONE',  ( 0.000000000000000000, 0.000000000000000000, 132.0000000000000000 ) ) ;
#132 = LINE ( 'NONE', #286, #67 ) ;
#133 = CARTESIAN_POINT ( 'NONE',  ( 0.000000000000000000, 0.000000000000000000, 0.000000000000000000 ) ) ;
#134 = DIRECTION ( 'NONE',  ( 1.000000000000000000, 0.000000000000000000, 0.000000000000000000 ) ) ;
#135 = PERSON_AND_ORGANIZATION_ROLE ( 'design_owner' ) ;
#136 = CARTESIAN_POINT ( 'NONE',  ( 0.000000000000000000, 0.000000000000000000, 7.000000000000000000 ) ) ;
#137 = PERSON_AND_ORGANIZATION ( #277, #302 ) ;
#138 = TOROIDAL_SURFACE ( 'NONE', #272, 8.200000000000001066, 0.2000000000000000111 ) ;
#139 = EDGE_LOOP ( 'NONE', ( #304, #237, #186, #98 ) ) ;
#140 = DATE_AND_TIME ( #303, #159 ) ;
#141 = ORIENTED_EDGE ( 'NONE', *, *, #9, .F. ) ;
#142 = ORIENTED_EDGE ( 'NONE', *, *, #128, .T. ) ;
#143 = CC_DESIGN_DATE_AND_TIME_ASSIGNMENT ( #258, #19, ( #34 ) ) ;
#144 = AXIS2_PLACEMENT_3D ( 'NONE', #59, #218, #86 ) ;
#145 = EDGE_LOOP ( 'NONE', ( #51, #118, #276, #261 ) ) ;
#146 = DIRECTION ( 'NONE',  ( 1.000000000000000000, 0.000000000000000000, 0.000000000000000000 ) ) ;
#147 = EDGE_CURVE ( 'NONE', #208, #77, #193, .T. ) ;
#148 = CARTESIAN_POINT ( 'NONE',  ( 0.000000000000000000, 0.000000000000000000, 7.000000000000000000 ) ) ;
#149 = CARTESIAN_POINT ( 'NONE',  ( -8.000000000000000000, 0.000000000000000000, 132.0000000000000000 ) ) ;
#150 = DIRECTION ( 'NONE',  ( 1.000000000000000000, 0.000000000000000000, 0.000000000000000000 ) ) ;
#151 = DIRECTION ( 'NONE',  ( -0.000000000000000000, -0.000000000000000000, -1.000000000000000000 ) ) ;
#152 = CC_DESIGN_PERSON_AND_ORGANIZATION_ASSIGNMENT ( #275, #17, ( #68 ) ) ;
#153 = MECHANICAL_CONTEXT ( 'NONE', #209, 'mechanical' ) ;
#154 = VECTOR ( 'NONE', #126, 1000.000000000000000 ) ;
#155 = DIRECTION ( 'NONE',  ( -1.000000000000000000, 0.000000000000000000, 0.000000000000000000 ) ) ;
#156 = CLOSED_SHELL ( 'NONE', ( #36, #48, #256, #293, #229, #95, #270, #206, #301 ) ) ;
#157 = DATE_AND_TIME ( #236, #101 ) ;
#158 = FACE_OUTER_BOUND ( 'NONE', #125, .T. ) ;
#159 = LOCAL_TIME ( 11, 39, 4.000000000000000000, #180 ) ;
#160 = PERSON_AND_ORGANIZATION_ROLE ( 'classification_officer' ) ;
#161 = ORIENTED_EDGE ( 'NONE', *, *, #284, .F. ) ;
#162 = APPROVAL ( #222, 'NEURÈENÝ' ) ;
#163 = APPROVAL_DATE_TIME ( #140, #92 ) ;
#164 = VERTEX_POINT ( 'NONE', #5 ) ;
#165 = ORIENTED_EDGE ( 'NONE', *, *, #241, .F. ) ;
#166 = EDGE_CURVE ( 'NONE', #262, #164, #242, .T. ) ;
#167 = LINE ( 'NONE', #264, #154 ) ;
#168 = FACE_OUTER_BOUND ( 'NONE', #139, .T. ) ;
#169 = DIRECTION ( 'NONE',  ( 0.000000000000000000, 0.000000000000000000, 1.000000000000000000 ) ) ;
#170 = FACE_OUTER_BOUND ( 'NONE', #305, .T. ) ;
#171 = CARTESIAN_POINT ( 'NONE',  ( -8.000000000000000000, 0.000000000000000000, 7.199999999999998401 ) ) ;
#172 = CC_DESIGN_PERSON_AND_ORGANIZATION_ASSIGNMENT ( #137, #183, ( #191 ) ) ;
#173 = DIRECTION ( 'NONE',  ( 0.000000000000000000, 0.000000000000000000, 1.000000000000000000 ) ) ;
#174 = CARTESIAN_POINT ( 'NONE',  ( 0.000000000000000000, 0.000000000000000000, 7.199999999999998401 ) ) ;
#175 = DIRECTION ( 'NONE',  ( 1.000000000000000000, 0.000000000000000000, 0.000000000000000000 ) ) ;
#176 = CIRCLE ( 'NONE', #200, 8.200000000000001066 ) ;
#177 = DESIGN_CONTEXT ( 'detailed design', #254, 'design' ) ;
#178 = APPROVAL_ROLE ( '' ) ;
#179 = DIRECTION ( 'NONE',  ( 0.000000000000000000, 0.000000000000000000, 1.000000000000000000 ) ) ;
#180 = COORDINATED_UNIVERSAL_TIME_OFFSET ( 1, 0, .AHEAD. ) ;
#181 = CARTESIAN_POINT ( 'NONE',  ( 0.000000000000000000, 0.000000000000000000, 7.199999999999998401 ) ) ;
#182 = EDGE_CURVE ( 'NONE', #208, #262, #132, .T. ) ;
#183 = PERSON_AND_ORGANIZATION_ROLE ( 'creator' ) ;
#184 = EDGE_LOOP ( 'NONE', ( #119, #161, #123, #273 ) ) ;
#185 = ORIENTED_EDGE ( 'NONE', *, *, #102, .T. ) ;
#186 = ORIENTED_EDGE ( 'NONE', *, *, #70, .T. ) ;
#187 = AXIS2_PLACEMENT_3D ( 'NONE', #10, #63, #38 ) ;
#188 = CARTESIAN_POINT ( 'NONE',  ( 0.000000000000000000, 0.000000000000000000, 7.000000000000000000 ) ) ;
#189 = DIRECTION ( 'NONE',  ( -1.000000000000000000, 1.224646799147353207E-16, 0.000000000000000000 ) ) ;
#190 = CARTESIAN_POINT ( 'NONE',  ( 0.000000000000000000, 0.000000000000000000, 132.0000000000000000 ) ) ;
#191 = PRODUCT_DEFINITION ( 'NEZNÁMÝ', '', #68, #177 ) ;
#192 = DIRECTION ( 'NONE',  ( 0.000000000000000000, 0.000000000000000000, 1.000000000000000000 ) ) ;
#193 = CIRCLE ( 'NONE', #7, 8.000000000000000000 ) ;
#194 = DIRECTION ( 'NONE',  ( 0.000000000000000000, 0.000000000000000000, 1.000000000000000000 ) ) ;
#195 = PERSON_AND_ORGANIZATION ( #277, #302 ) ;
#196 = AXIS2_PLACEMENT_3D ( 'NONE', #243, #129, #146 ) ;
#197 = APPROVAL_ROLE ( '' ) ;
#198 = CARTESIAN_POINT ( 'NONE',  ( 0.000000000000000000, 0.000000000000000000, 7.199999999999998401 ) ) ;
#199 = DIRECTION ( 'NONE',  ( -0.000000000000000000, -0.000000000000000000, -1.000000000000000000 ) ) ;
#200 = AXIS2_PLACEMENT_3D ( 'NONE', #188, #4, #104 ) ;
#201 = DIRECTION ( 'NONE',  ( -1.000000000000000000, 0.000000000000000000, 0.000000000000000000 ) ) ;
#202 = VECTOR ( 'NONE', #113, 1000.000000000000000 ) ;
#203 = LOCAL_TIME ( 11, 39, 4.000000000000000000, #291 ) ;
#204 = APPROVAL_STATUS ( 'not_yet_approved' ) ;
#205 = ORIENTED_EDGE ( 'NONE', *, *, #102, .F. ) ;
#206 = ADVANCED_FACE ( 'NONE', ( #170 ), #217, .T. ) ;
#207 = ORIENTED_EDGE ( 'NONE', *, *, #182, .T. ) ;
#208 = VERTEX_POINT ( 'NONE', #266 ) ;
#209 = APPLICATION_CONTEXT ( 'configuration controlled 3d designs of mechanical parts and assemblies' ) ;
#210 = PERSON_AND_ORGANIZATION ( #277, #302 ) ;
#211 = CARTESIAN_POINT ( 'NONE',  ( 0.000000000000000000, 0.000000000000000000, 7.199999999999998401 ) ) ;
#212 = ORIENTED_EDGE ( 'NONE', *, *, #147, .T. ) ;
#213 = CARTESIAN_POINT ( 'NONE',  ( 11.00000000000000000, 1.347111479062088405E-15, 0.000000000000000000 ) ) ;
#214 = CIRCLE ( 'NONE', #88, 11.00000000000000000 ) ;
#215 = CARTESIAN_POINT ( 'NONE',  ( 0.000000000000000000, 0.000000000000000000, 0.000000000000000000 ) ) ;
#216 = CC_DESIGN_PERSON_AND_ORGANIZATION_ASSIGNMENT ( #195, #135, ( #39 ) ) ;
#217 = PLANE ( 'NONE',  #107 ) ;
#218 = DIRECTION ( 'NONE',  ( 0.000000000000000000, 0.000000000000000000, 1.000000000000000000 ) ) ;
#219 = DIRECTION ( 'NONE',  ( 0.000000000000000000, 0.000000000000000000, 1.000000000000000000 ) ) ;
#220 = CC_DESIGN_DATE_AND_TIME_ASSIGNMENT ( #233, #21, ( #191 ) ) ;
#221 =( NAMED_UNIT ( * ) SI_UNIT ( $, .STERADIAN. ) SOLID_ANGLE_UNIT ( ) );
#222 = APPROVAL_STATUS ( 'not_yet_approved' ) ;
#223 = CARTESIAN_POINT ( 'NONE',  ( 0.000000000000000000, 0.000000000000000000, 132.0000000000000000 ) ) ;
#224 = CARTESIAN_POINT ( 'NONE',  ( 11.00000000000000000, 1.347111479062088405E-15, 7.000000000000000000 ) ) ;
#225 = CARTESIAN_POINT ( 'NONE',  ( 0.000000000000000000, 0.000000000000000000, 0.000000000000000000 ) ) ;
#226 = APPROVAL_STATUS ( 'not_yet_approved' ) ;
#227 = DIRECTION ( 'NONE',  ( 0.000000000000000000, 0.000000000000000000, 1.000000000000000000 ) ) ;
#228 = AXIS2_PLACEMENT_3D ( 'NONE', #174, #173, #134 ) ;
#229 = ADVANCED_FACE ( 'NONE', ( #57, #8 ), #60, .T. ) ;
#230 = COORDINATED_UNIVERSAL_TIME_OFFSET ( 1, 0, .AHEAD. ) ;
#231 = CARTESIAN_POINT ( 'NONE',  ( -11.00000000000000000, 0.000000000000000000, 0.000000000000000000 ) ) ;
#232 = EDGE_LOOP ( 'NONE', ( #142, #22 ) ) ;
#233 = DATE_AND_TIME ( #297, #46 ) ;
#234 = VERTEX_POINT ( 'NONE', #171 ) ;
#235 = APPROVAL_PERSON_ORGANIZATION ( #94, #92, #122 ) ;
#236 = CALENDAR_DATE ( 2022, 7, 7 ) ;
#237 = ORIENTED_EDGE ( 'NONE', *, *, #280, .T. ) ;
#238 = DIRECTION ( 'NONE',  ( 1.000000000000000000, 0.000000000000000000, -0.000000000000000000 ) ) ;
#239 = DIRECTION ( 'NONE',  ( 1.000000000000000000, 0.000000000000000000, -0.000000000000000000 ) ) ;
#240 = CIRCLE ( 'NONE', #110, 0.2000000000000005107 ) ;
#241 = EDGE_CURVE ( 'NONE', #43, #255, #247, .T. ) ;
#242 = CIRCLE ( 'NONE', #16, 0.1999999999999996503 ) ;
#243 = CARTESIAN_POINT ( 'NONE',  ( 0.000000000000000000, 0.000000000000000000, 7.000000000000000000 ) ) ;
#244 = LINE ( 'NONE', #149, #75 ) ;
#245 = CARTESIAN_POINT ( 'NONE',  ( 0.000000000000000000, 0.000000000000000000, 0.000000000000000000 ) ) ;
#246 = CYLINDRICAL_SURFACE ( 'NONE', #78, 8.000000000000000000 ) ;
#247 = CIRCLE ( 'NONE', #54, 11.00000000000000000 ) ;
#248 = PRODUCT_DEFINITION_SHAPE ( 'NONE', 'NONE',  #191 ) ;
#249 = CARTESIAN_POINT ( 'NONE',  ( -11.00000000000000000, 0.000000000000000000, 7.000000000000000000 ) ) ;
#250 = UNCERTAINTY_MEASURE_WITH_UNIT (LENGTH_MEASURE( 1.000000000000000082E-05 ), #87, 'distance_accuracy_value', 'NONE');
#251 = EDGE_CURVE ( 'NONE', #263, #43, #167, .T. ) ;
#252 = CARTESIAN_POINT ( 'NONE',  ( 0.000000000000000000, 0.000000000000000000, 7.000000000000000000 ) ) ;
#253 = APPROVAL_PERSON_ORGANIZATION ( #37, #162, #197 ) ;
#254 = APPLICATION_CONTEXT ( 'configuration controlled 3d designs of mechanical parts and assemblies' ) ;
#255 = VERTEX_POINT ( 'NONE', #213 ) ;
#256 = ADVANCED_FACE ( 'NONE', ( #168 ), #56, .T. ) ;
#257 = CIRCLE ( 'NONE', #196, 8.200000000000001066 ) ;
#258 = DATE_AND_TIME ( #278, #283 ) ;
#259 = EDGE_LOOP ( 'NONE', ( #205, #282, #74, #97 ) ) ;
#260 = APPROVAL_DATE_TIME ( #157, #114 ) ;
#261 = ORIENTED_EDGE ( 'NONE', *, *, #241, .T. ) ;
#262 = VERTEX_POINT ( 'NONE', #295 ) ;
#263 = VERTEX_POINT ( 'NONE', #249 ) ;
#264 = CARTESIAN_POINT ( 'NONE',  ( -11.00000000000000000, 0.000000000000000000, 7.000000000000000000 ) ) ;
#265 = CARTESIAN_POINT ( 'NONE',  ( -8.200000000000001066, 1.004210375300829674E-15, 6.999999999999999112 ) ) ;
#266 = CARTESIAN_POINT ( 'NONE',  ( 8.000000000000000000, 9.797174393178825657E-16, 132.0000000000000000 ) ) ;
#267 = CARTESIAN_POINT ( 'NONE',  ( 0.000000000000000000, 0.000000000000000000, 132.0000000000000000 ) ) ;
#268 = DIRECTION ( 'NONE',  ( 0.000000000000000000, 0.000000000000000000, 1.000000000000000000 ) ) ;
#269 = FACE_OUTER_BOUND ( 'NONE', #145, .T. ) ;
#270 = ADVANCED_FACE ( 'NONE', ( #40 ), #246, .T. ) ;
#271 = DATE_AND_TIME ( #89, #203 ) ;
#272 = AXIS2_PLACEMENT_3D ( 'NONE', #181, #192, #103 ) ;
#273 = ORIENTED_EDGE ( 'NONE', *, *, #9, .T. ) ;
#274 = CIRCLE ( 'NONE', #23, 11.00000000000000000 ) ;
#275 = PERSON_AND_ORGANIZATION ( #277, #302 ) ;
#276 = ORIENTED_EDGE ( 'NONE', *, *, #251, .T. ) ;
#277 = PERSON ( 'NEURÈENÝ', 'NEURÈENÝ', 'NEURÈENÝ', ('NEURÈENÝ'), ('NEURÈENÝ'), ('NEURÈENÝ') ) ;
#278 = CALENDAR_DATE ( 2022, 7, 7 ) ;
#279 = VERTEX_POINT ( 'NONE', #224 ) ;
#280 = EDGE_CURVE ( 'NONE', #279, #255, #41, .T. ) ;
#281 = EDGE_LOOP ( 'NONE', ( #165, #121 ) ) ;
#282 = ORIENTED_EDGE ( 'NONE', *, *, #306, .F. ) ;
#283 = LOCAL_TIME ( 11, 39, 4.000000000000000000, #124 ) ;
#284 = EDGE_CURVE ( 'NONE', #77, #208, #116, .T. ) ;
#285 = DIRECTION ( 'NONE',  ( 1.000000000000000000, 0.000000000000000000, 0.000000000000000000 ) ) ;
#286 = CARTESIAN_POINT ( 'NONE',  ( 8.000000000000000000, 9.797174393178825657E-16, 132.0000000000000000 ) ) ;
#287 = CARTESIAN_POINT ( 'NONE',  ( 8.200000000000001066, 0.000000000000000000, 7.199999999999998401 ) ) ;
#288 = DIRECTION ( 'NONE',  ( 1.224646799147353207E-16, 1.000000000000000000, -0.000000000000000000 ) ) ;
#289 = DIRECTION ( 'NONE',  ( 1.000000000000000000, 0.000000000000000000, 0.000000000000000000 ) ) ;
#290 = DIRECTION ( 'NONE',  ( 1.000000000000000000, 0.000000000000000000, 0.000000000000000000 ) ) ;
#291 = COORDINATED_UNIVERSAL_TIME_OFFSET ( 1, 0, .AHEAD. ) ;
#292 = AXIS2_PLACEMENT_3D ( 'NONE', #225, #13, #290 ) ;
#293 = ADVANCED_FACE ( 'NONE', ( #269 ), #115, .T. ) ;
#294 = DIRECTION ( 'NONE',  ( 0.000000000000000000, 0.000000000000000000, 1.000000000000000000 ) ) ;
#295 = CARTESIAN_POINT ( 'NONE',  ( 8.000000000000000000, 9.797174393178825657E-16, 7.199999999999998401 ) ) ;
#296 = PERSON_AND_ORGANIZATION ( #277, #302 ) ;
#297 = CALENDAR_DATE ( 2022, 7, 7 ) ;
#298 = CARTESIAN_POINT ( 'NONE',  ( 0.000000000000000000, 0.000000000000000000, 7.000000000000000000 ) ) ;
#299 = ORIENTED_EDGE ( 'NONE', *, *, #58, .T. ) ;
#300 = ORIENTED_EDGE ( 'NONE', *, *, #58, .F. ) ;
#301 = ADVANCED_FACE ( 'NONE', ( #109 ), #111, .F. ) ;
#302 = ORGANIZATION ( 'NEURÈENÝ', 'NEURÈENÝ', '' ) ;
#303 = CALENDAR_DATE ( 2022, 7, 7 ) ;
#304 = ORIENTED_EDGE ( 'NONE', *, *, #30, .F. ) ;
#305 = EDGE_LOOP ( 'NONE', ( #99, #212 ) ) ;
#306 = EDGE_CURVE ( 'NONE', #262, #234, #2, .T. ) ;
#307 = AXIS2_PLACEMENT_3D ( 'NONE', #131, #1, #28 ) ;
ENDSEC;
END-ISO-10303-21;
