ISO-10303-21;
HEADER;
FILE_DESCRIPTION (( 'STEP AP203' ),
    '1' );
FILE_NAME ('fe64.STEP',
    '2022-07-07T09:31:02',
    ( '' ),
    ( '' ),
    'SwSTEP 2.0',
    'SolidWorks 2019',
    '' );
FILE_SCHEMA (( 'CONFIG_CONTROL_DESIGN' ));
ENDSEC;

DATA;
#1 = DATE_AND_TIME ( #78, #166 ) ;
#2 = ADVANCED_FACE ( 'NONE', ( #248 ), #132, .T. ) ;
#3 = PERSON_AND_ORGANIZATION_ROLE ( 'creator' ) ;
#4 = EDGE_CURVE ( 'NONE', #105, #79, #67, .T. ) ;
#5 = DATE_AND_TIME ( #33, #269 ) ;
#6 = VERTEX_POINT ( 'NONE', #131 ) ;
#7 = COORDINATED_UNIVERSAL_TIME_OFFSET ( 1, 0, .AHEAD. ) ;
#8 = ORIENTED_EDGE ( 'NONE', *, *, #227, .T. ) ;
#9 = VERTEX_POINT ( 'NONE', #41 ) ;
#10 = CYLINDRICAL_SURFACE ( 'NONE', #128, 16.00000000000000000 ) ;
#11 = EDGE_CURVE ( 'NONE', #64, #79, #200, .T. ) ;
#12 = CLOSED_SHELL ( 'NONE', ( #236, #260, #80, #2, #232, #173, #65, #167, #123 ) ) ;
#13 = CARTESIAN_POINT ( 'NONE',  ( -12.50000000000000000, 0.000000000000000000, 10.19999999999998685 ) ) ;
#14 = CYLINDRICAL_SURFACE ( 'NONE', #56, 12.50000000000000000 ) ;
#15 = CARTESIAN_POINT ( 'NONE',  ( 16.00000000000000000, 1.959434878635765131E-15, 10.00000000000000000 ) ) ;
#16 = DIRECTION ( 'NONE',  ( 1.000000000000000000, 0.000000000000000000, 0.000000000000000000 ) ) ;
#17 = FACE_OUTER_BOUND ( 'NONE', #295, .T. ) ;
#18 = CC_DESIGN_APPROVAL ( #210, ( #205 ) ) ;
#19 = DIRECTION ( 'NONE',  ( 0.000000000000000000, 0.000000000000000000, 1.000000000000000000 ) ) ;
#20 = DESIGN_CONTEXT ( 'detailed design', #101, 'design' ) ;
#21 = CC_DESIGN_PERSON_AND_ORGANIZATION_ASSIGNMENT ( #197, #239, ( #224 ) ) ;
#22 = DIRECTION ( 'NONE',  ( 1.000000000000000000, 0.000000000000000000, 0.000000000000000000 ) ) ;
#23 = AXIS2_PLACEMENT_3D ( 'NONE', #168, #19, #22 ) ;
#24 = DIRECTION ( 'NONE',  ( 0.000000000000000000, 0.000000000000000000, 1.000000000000000000 ) ) ;
#25 = APPROVAL ( #241, 'NEURÈENÝ' ) ;
#26 = DIRECTION ( 'NONE',  ( 1.000000000000000000, 0.000000000000000000, 0.000000000000000000 ) ) ;
#27 = APPROVAL_DATE_TIME ( #286, #103 ) ;
#28 = AXIS2_PLACEMENT_3D ( 'NONE', #268, #279, #145 ) ;
#29 = COORDINATED_UNIVERSAL_TIME_OFFSET ( 1, 0, .AHEAD. ) ;
#30 = ORIENTED_EDGE ( 'NONE', *, *, #11, .F. ) ;
#31 =( GEOMETRIC_REPRESENTATION_CONTEXT ( 3 ) GLOBAL_UNCERTAINTY_ASSIGNED_CONTEXT ( ( #112 ) ) GLOBAL_UNIT_ASSIGNED_CONTEXT ( ( #302, #126, #178 ) ) REPRESENTATION_CONTEXT ( 'NONE', 'WORKASPACE' ) );
#32 = LOCAL_TIME ( 11, 31, 2.000000000000000000, #29 ) ;
#33 = CALENDAR_DATE ( 2022, 7, 7 ) ;
#34 = SHAPE_DEFINITION_REPRESENTATION ( #299, #182 ) ;
#35 = VERTEX_POINT ( 'NONE', #69 ) ;
#36 = AXIS2_PLACEMENT_3D ( 'NONE', #39, #88, #273 ) ;
#37 = ORIENTED_EDGE ( 'NONE', *, *, #71, .F. ) ;
#38 = AXIS2_PLACEMENT_3D ( 'NONE', #50, #143, #26 ) ;
#39 = CARTESIAN_POINT ( 'NONE',  ( 0.000000000000000000, 0.000000000000000000, 10.00000000000000000 ) ) ;
#40 = EDGE_LOOP ( 'NONE', ( #68, #8 ) ) ;
#41 = CARTESIAN_POINT ( 'NONE',  ( -12.50000000000000000, 0.000000000000000000, 640.0000000000000000 ) ) ;
#42 = EDGE_CURVE ( 'NONE', #6, #105, #240, .T. ) ;
#43 = DIRECTION ( 'NONE',  ( 1.224646799147353207E-16, 1.000000000000000000, -0.000000000000000000 ) ) ;
#44 = DIRECTION ( 'NONE',  ( 0.000000000000000000, 0.000000000000000000, 1.000000000000000000 ) ) ;
#45 = AXIS2_PLACEMENT_3D ( 'NONE', #84, #204, #139 ) ;
#46 = DIRECTION ( 'NONE',  ( 0.000000000000000000, 0.000000000000000000, 1.000000000000000000 ) ) ;
#47 = AXIS2_PLACEMENT_3D ( 'NONE', #73, #304, #252 ) ;
#48 = CARTESIAN_POINT ( 'NONE',  ( 0.000000000000000000, 0.000000000000000000, 0.000000000000000000 ) ) ;
#49 = LOCAL_TIME ( 11, 31, 2.000000000000000000, #7 ) ;
#50 = CARTESIAN_POINT ( 'NONE',  ( 0.000000000000000000, 0.000000000000000000, 0.000000000000000000 ) ) ;
#51 = DIRECTION ( 'NONE',  ( 0.000000000000000000, 0.000000000000000000, 1.000000000000000000 ) ) ;
#52 = CIRCLE ( 'NONE', #262, 16.00000000000000000 ) ;
#53 = PLANE ( 'NONE',  #188 ) ;
#54 = PERSON_AND_ORGANIZATION ( #199, #266 ) ;
#55 = CALENDAR_DATE ( 2022, 7, 7 ) ;
#56 = AXIS2_PLACEMENT_3D ( 'NONE', #137, #87, #135 ) ;
#57 = APPROVAL_DATE_TIME ( #263, #25 ) ;
#58 = CIRCLE ( 'NONE', #47, 12.70000000000000107 ) ;
#59 = PERSON_AND_ORGANIZATION_ROLE ( 'classification_officer' ) ;
#60 = ORIENTED_EDGE ( 'NONE', *, *, #109, .F. ) ;
#61 = PERSON_AND_ORGANIZATION_ROLE ( 'creator' ) ;
#62 = APPLICATION_CONTEXT ( 'configuration controlled 3d designs of mechanical parts and assemblies' ) ;
#63 = VECTOR ( 'NONE', #307, 1000.000000000000000 ) ;
#64 = VERTEX_POINT ( 'NONE', #13 ) ;
#65 = ADVANCED_FACE ( 'NONE', ( #163 ), #14, .T. ) ;
#66 = VERTEX_POINT ( 'NONE', #15 ) ;
#67 = CIRCLE ( 'NONE', #36, 12.70000000000000107 ) ;
#68 = ORIENTED_EDGE ( 'NONE', *, *, #4, .T. ) ;
#69 = CARTESIAN_POINT ( 'NONE',  ( -16.00000000000000000, 0.000000000000000000, 0.000000000000000000 ) ) ;
#70 = DIRECTION ( 'NONE',  ( 1.000000000000000000, 0.000000000000000000, 0.000000000000000000 ) ) ;
#71 = EDGE_CURVE ( 'NONE', #9, #64, #223, .T. ) ;
#72 = CIRCLE ( 'NONE', #144, 12.50000000000000000 ) ;
#73 = CARTESIAN_POINT ( 'NONE',  ( 0.000000000000000000, 0.000000000000000000, 10.00000000000000000 ) ) ;
#74 = CARTESIAN_POINT ( 'NONE',  ( 0.000000000000000000, 0.000000000000000000, 10.00000000000000000 ) ) ;
#75 = AXIS2_PLACEMENT_3D ( 'NONE', #211, #51, #76 ) ;
#76 = DIRECTION ( 'NONE',  ( 1.000000000000000000, 0.000000000000000000, 0.000000000000000000 ) ) ;
#77 = APPLICATION_PROTOCOL_DEFINITION ( 'international standard', 'config_control_design', 1994, #62 ) ;
#78 = CALENDAR_DATE ( 2022, 7, 7 ) ;
#79 = VERTEX_POINT ( 'NONE', #108 ) ;
#80 = ADVANCED_FACE ( 'NONE', ( #267 ), #10, .T. ) ;
#81 = PERSON_AND_ORGANIZATION ( #199, #266 ) ;
#82 = ORIENTED_EDGE ( 'NONE', *, *, #138, .F. ) ;
#83 = SECURITY_CLASSIFICATION_LEVEL ( 'unclassified' ) ;
#84 = CARTESIAN_POINT ( 'NONE',  ( 12.70000000000000107, 0.000000000000000000, 10.19999999999998685 ) ) ;
#85 = DIRECTION ( 'NONE',  ( 0.000000000000000000, 0.000000000000000000, 1.000000000000000000 ) ) ;
#86 = CIRCLE ( 'NONE', #75, 12.50000000000000000 ) ;
#87 = DIRECTION ( 'NONE',  ( -0.000000000000000000, -0.000000000000000000, -1.000000000000000000 ) ) ;
#88 = DIRECTION ( 'NONE',  ( -0.000000000000000000, -0.000000000000000000, -1.000000000000000000 ) ) ;
#89 = CARTESIAN_POINT ( 'NONE',  ( 0.000000000000000000, 0.000000000000000000, 0.000000000000000000 ) ) ;
#90 = DIRECTION ( 'NONE',  ( 1.000000000000000000, 0.000000000000000000, 0.000000000000000000 ) ) ;
#91 = DIRECTION ( 'NONE',  ( 0.000000000000000000, 0.000000000000000000, 1.000000000000000000 ) ) ;
#92 = AXIS2_PLACEMENT_3D ( 'NONE', #164, #91, #70 ) ;
#93 = CARTESIAN_POINT ( 'NONE',  ( 16.00000000000000000, 1.959434878635765131E-15, 0.000000000000000000 ) ) ;
#94 = FACE_BOUND ( 'NONE', #40, .T. ) ;
#95 = LOCAL_TIME ( 11, 31, 2.000000000000000000, #261 ) ;
#96 = LINE ( 'NONE', #214, #63 ) ;
#97 = CALENDAR_DATE ( 2022, 7, 7 ) ;
#98 = PERSON_AND_ORGANIZATION ( #199, #266 ) ;
#99 = APPROVAL_PERSON_ORGANIZATION ( #124, #25, #244 ) ;
#100 = APPROVAL_DATE_TIME ( #1, #210 ) ;
#101 = APPLICATION_CONTEXT ( 'configuration controlled 3d designs of mechanical parts and assemblies' ) ;
#102 = DATE_TIME_ROLE ( 'creation_date' ) ;
#103 = APPROVAL ( #196, 'NEURÈENÝ' ) ;
#104 = ORIENTED_EDGE ( 'NONE', *, *, #162, .T. ) ;
#105 = VERTEX_POINT ( 'NONE', #301 ) ;
#106 = FACE_OUTER_BOUND ( 'NONE', #245, .T. ) ;
#107 = AXIS2_PLACEMENT_3D ( 'NONE', #48, #191, #255 ) ;
#108 = CARTESIAN_POINT ( 'NONE',  ( -12.70000000000000107, 1.555301434917138630E-15, 9.999999999999992895 ) ) ;
#109 = EDGE_CURVE ( 'NONE', #296, #35, #215, .T. ) ;
#110 = AXIS2_PLACEMENT_3D ( 'NONE', #291, #219, #120 ) ;
#111 = DIRECTION ( 'NONE',  ( -0.000000000000000000, -0.000000000000000000, -1.000000000000000000 ) ) ;
#112 = UNCERTAINTY_MEASURE_WITH_UNIT (LENGTH_MEASURE( 1.000000000000000082E-05 ), #302, 'distance_accuracy_value', 'NONE');
#113 = DIRECTION ( 'NONE',  ( -0.000000000000000000, -0.000000000000000000, -1.000000000000000000 ) ) ;
#114 = CARTESIAN_POINT ( 'NONE',  ( 0.000000000000000000, 0.000000000000000000, 10.19999999999998685 ) ) ;
#115 = CARTESIAN_POINT ( 'NONE',  ( 0.000000000000000000, 0.000000000000000000, 640.0000000000000000 ) ) ;
#116 = APPROVAL_PERSON_ORGANIZATION ( #153, #103, #201 ) ;
#117 = EDGE_CURVE ( 'NONE', #6, #64, #253, .T. ) ;
#118 = FACE_OUTER_BOUND ( 'NONE', #246, .T. ) ;
#119 = CARTESIAN_POINT ( 'NONE',  ( 0.000000000000000000, 0.000000000000000000, 10.19999999999998685 ) ) ;
#120 = DIRECTION ( 'NONE',  ( 1.000000000000000000, 0.000000000000000000, 0.000000000000000000 ) ) ;
#121 = TOROIDAL_SURFACE ( 'NONE', #23, 12.70000000000000107, 0.2000000000000000111 ) ;
#122 = PERSON_AND_ORGANIZATION ( #199, #266 ) ;
#123 = ADVANCED_FACE ( 'NONE', ( #106 ), #121, .F. ) ;
#124 = PERSON_AND_ORGANIZATION ( #199, #266 ) ;
#125 = AXIS2_PLACEMENT_3D ( 'NONE', #119, #280, #90 ) ;
#126 =( NAMED_UNIT ( * ) PLANE_ANGLE_UNIT ( ) SI_UNIT ( $, .RADIAN. ) );
#127 = ORIENTED_EDGE ( 'NONE', *, *, #138, .T. ) ;
#128 = AXIS2_PLACEMENT_3D ( 'NONE', #228, #111, #207 ) ;
#129 = ORIENTED_EDGE ( 'NONE', *, *, #117, .F. ) ;
#130 = CIRCLE ( 'NONE', #38, 16.00000000000000000 ) ;
#131 = CARTESIAN_POINT ( 'NONE',  ( 12.50000000000000000, 1.530808498934191521E-15, 10.19999999999998685 ) ) ;
#132 = CYLINDRICAL_SURFACE ( 'NONE', #272, 16.00000000000000000 ) ;
#133 = EDGE_CURVE ( 'NONE', #66, #292, #294, .T. ) ;
#134 = CIRCLE ( 'NONE', #92, 12.50000000000000000 ) ;
#135 = DIRECTION ( 'NONE',  ( -1.000000000000000000, 0.000000000000000000, 0.000000000000000000 ) ) ;
#136 = CC_DESIGN_APPROVAL ( #25, ( #185 ) ) ;
#137 = CARTESIAN_POINT ( 'NONE',  ( 0.000000000000000000, 0.000000000000000000, 640.0000000000000000 ) ) ;
#138 = EDGE_CURVE ( 'NONE', #66, #296, #172, .T. ) ;
#139 = DIRECTION ( 'NONE',  ( 0.000000000000000000, 0.000000000000000000, -1.000000000000000000 ) ) ;
#140 = DIRECTION ( 'NONE',  ( -0.000000000000000000, -0.000000000000000000, -1.000000000000000000 ) ) ;
#141 = PLANE ( 'NONE',  #142 ) ;
#142 = AXIS2_PLACEMENT_3D ( 'NONE', #74, #46, #257 ) ;
#143 = DIRECTION ( 'NONE',  ( 0.000000000000000000, 0.000000000000000000, 1.000000000000000000 ) ) ;
#144 = AXIS2_PLACEMENT_3D ( 'NONE', #192, #254, #190 ) ;
#145 = DIRECTION ( 'NONE',  ( 1.000000000000000000, 0.000000000000000000, 0.000000000000000000 ) ) ;
#146 = CARTESIAN_POINT ( 'NONE',  ( 0.000000000000000000, 0.000000000000000000, 10.00000000000000000 ) ) ;
#147 = COORDINATED_UNIVERSAL_TIME_OFFSET ( 1, 0, .AHEAD. ) ;
#148 = DATE_TIME_ROLE ( 'classification_date' ) ;
#149 = EDGE_LOOP ( 'NONE', ( #82, #293, #152, #184 ) ) ;
#150 = CC_DESIGN_PERSON_AND_ORGANIZATION_ASSIGNMENT ( #195, #61, ( #205 ) ) ;
#151 = DATE_AND_TIME ( #55, #95 ) ;
#152 = ORIENTED_EDGE ( 'NONE', *, *, #242, .T. ) ;
#153 = PERSON_AND_ORGANIZATION ( #199, #266 ) ;
#154 = ORIENTED_EDGE ( 'NONE', *, *, #278, .T. ) ;
#155 = ORIENTED_EDGE ( 'NONE', *, *, #183, .F. ) ;
#156 = PRODUCT_DEFINITION_FORMATION_WITH_SPECIFIED_SOURCE ( 'LIBOVOLNÝ', '', #224, .NOT_KNOWN. ) ;
#157 = CC_DESIGN_PERSON_AND_ORGANIZATION_ASSIGNMENT ( #98, #288, ( #156 ) ) ;
#158 = DIRECTION ( 'NONE',  ( -1.000000000000000000, 1.224646799147353207E-16, 0.000000000000000000 ) ) ;
#159 = ORIENTED_EDGE ( 'NONE', *, *, #133, .F. ) ;
#160 = AXIS2_PLACEMENT_3D ( 'NONE', #89, #44, #16 ) ;
#161 = ORIENTED_EDGE ( 'NONE', *, *, #300, .F. ) ;
#162 = EDGE_CURVE ( 'NONE', #9, #247, #72, .T. ) ;
#163 = FACE_OUTER_BOUND ( 'NONE', #180, .T. ) ;
#164 = CARTESIAN_POINT ( 'NONE',  ( 0.000000000000000000, 0.000000000000000000, 640.0000000000000000 ) ) ;
#165 = FACE_OUTER_BOUND ( 'NONE', #186, .T. ) ;
#166 = LOCAL_TIME ( 11, 31, 2.000000000000000000, #147 ) ;
#167 = ADVANCED_FACE ( 'NONE', ( #258 ), #53, .T. ) ;
#168 = CARTESIAN_POINT ( 'NONE',  ( 0.000000000000000000, 0.000000000000000000, 10.19999999999998685 ) ) ;
#169 = AXIS2_PLACEMENT_3D ( 'NONE', #115, #234, #209 ) ;
#170 = FACE_OUTER_BOUND ( 'NONE', #271, .T. ) ;
#171 = AXIS2_PLACEMENT_3D ( 'NONE', #114, #85, #181 ) ;
#172 = LINE ( 'NONE', #277, #202 ) ;
#173 = ADVANCED_FACE ( 'NONE', ( #165 ), #193, .F. ) ;
#174 = MANIFOLD_SOLID_BREP ( 'Zaoblit1', #12 ) ;
#175 = ORIENTED_EDGE ( 'NONE', *, *, #300, .T. ) ;
#176 = CALENDAR_DATE ( 2022, 7, 7 ) ;
#177 = EDGE_LOOP ( 'NONE', ( #104, #230 ) ) ;
#178 =( NAMED_UNIT ( * ) SI_UNIT ( $, .STERADIAN. ) SOLID_ANGLE_UNIT ( ) );
#179 = MECHANICAL_CONTEXT ( 'NONE', #62, 'mechanical' ) ;
#180 = EDGE_LOOP ( 'NONE', ( #161, #231, #298, #154 ) ) ;
#181 = DIRECTION ( 'NONE',  ( 1.000000000000000000, 0.000000000000000000, 0.000000000000000000 ) ) ;
#182 = ADVANCED_BREP_SHAPE_REPRESENTATION ( 'fe64', ( #174, #110 ), #31 ) ;
#183 = EDGE_CURVE ( 'NONE', #247, #9, #134, .T. ) ;
#184 = ORIENTED_EDGE ( 'NONE', *, *, #256, .T. ) ;
#185 = SECURITY_CLASSIFICATION ( '', '', #83 ) ;
#186 = EDGE_LOOP ( 'NONE', ( #287, #60 ) ) ;
#187 = ORIENTED_EDGE ( 'NONE', *, *, #227, .F. ) ;
#188 = AXIS2_PLACEMENT_3D ( 'NONE', #237, #24, #235 ) ;
#189 = ORIENTED_EDGE ( 'NONE', *, *, #4, .F. ) ;
#190 = DIRECTION ( 'NONE',  ( 1.000000000000000000, 0.000000000000000000, 0.000000000000000000 ) ) ;
#191 = DIRECTION ( 'NONE',  ( 0.000000000000000000, 0.000000000000000000, 1.000000000000000000 ) ) ;
#192 = CARTESIAN_POINT ( 'NONE',  ( 0.000000000000000000, 0.000000000000000000, 640.0000000000000000 ) ) ;
#193 = PLANE ( 'NONE',  #107 ) ;
#194 = CARTESIAN_POINT ( 'NONE',  ( -16.00000000000000000, 0.000000000000000000, 10.00000000000000000 ) ) ;
#195 = PERSON_AND_ORGANIZATION ( #199, #266 ) ;
#196 = APPROVAL_STATUS ( 'not_yet_approved' ) ;
#197 = PERSON_AND_ORGANIZATION ( #199, #266 ) ;
#198 = ORIENTED_EDGE ( 'NONE', *, *, #109, .T. ) ;
#199 = PERSON ( 'NEURÈENÝ', 'NEURÈENÝ', 'NEURÈENÝ', ('NEURÈENÝ'), ('NEURÈENÝ'), ('NEURÈENÝ') ) ;
#200 = CIRCLE ( 'NONE', #208, 0.2000000000000005107 ) ;
#201 = APPROVAL_ROLE ( '' ) ;
#202 = VECTOR ( 'NONE', #276, 1000.000000000000000 ) ;
#203 = ORIENTED_EDGE ( 'NONE', *, *, #42, .F. ) ;
#204 = DIRECTION ( 'NONE',  ( 0.000000000000000000, -1.000000000000000000, 0.000000000000000000 ) ) ;
#205 = PRODUCT_DEFINITION ( 'NEZNÁMÝ', '', #156, #20 ) ;
#206 = ORIENTED_EDGE ( 'NONE', *, *, #42, .T. ) ;
#207 = DIRECTION ( 'NONE',  ( -1.000000000000000000, 0.000000000000000000, 0.000000000000000000 ) ) ;
#208 = AXIS2_PLACEMENT_3D ( 'NONE', #250, #43, #158 ) ;
#209 = DIRECTION ( 'NONE',  ( -1.000000000000000000, 0.000000000000000000, 0.000000000000000000 ) ) ;
#210 = APPROVAL ( #284, 'NEURÈENÝ' ) ;
#211 = CARTESIAN_POINT ( 'NONE',  ( 0.000000000000000000, 0.000000000000000000, 10.19999999999998685 ) ) ;
#212 = CARTESIAN_POINT ( 'NONE',  ( 12.50000000000000000, 1.530808498934191521E-15, 640.0000000000000000 ) ) ;
#213 = EDGE_CURVE ( 'NONE', #292, #66, #52, .T. ) ;
#214 = CARTESIAN_POINT ( 'NONE',  ( 12.50000000000000000, 1.530808498934191521E-15, 640.0000000000000000 ) ) ;
#215 = CIRCLE ( 'NONE', #160, 16.00000000000000000 ) ;
#216 = APPLICATION_PROTOCOL_DEFINITION ( 'international standard', 'config_control_design', 1994, #101 ) ;
#217 = CC_DESIGN_APPROVAL ( #103, ( #156 ) ) ;
#218 = PRODUCT_RELATED_PRODUCT_CATEGORY ( 'detail', '', ( #224 ) ) ;
#219 = DIRECTION ( 'NONE',  ( 0.000000000000000000, 0.000000000000000000, 1.000000000000000000 ) ) ;
#220 = APPROVAL_ROLE ( '' ) ;
#221 = EDGE_LOOP ( 'NONE', ( #159, #127, #198, #264 ) ) ;
#222 = ORIENTED_EDGE ( 'NONE', *, *, #278, .F. ) ;
#223 = LINE ( 'NONE', #251, #225 ) ;
#224 = PRODUCT ( 'fe64', 'fe64', '', ( #179 ) ) ;
#225 = VECTOR ( 'NONE', #113, 1000.000000000000000 ) ;
#226 = CARTESIAN_POINT ( 'NONE',  ( 0.000000000000000000, 0.000000000000000000, 10.00000000000000000 ) ) ;
#227 = EDGE_CURVE ( 'NONE', #79, #105, #58, .T. ) ;
#228 = CARTESIAN_POINT ( 'NONE',  ( 0.000000000000000000, 0.000000000000000000, 10.00000000000000000 ) ) ;
#229 = VECTOR ( 'NONE', #140, 1000.000000000000000 ) ;
#230 = ORIENTED_EDGE ( 'NONE', *, *, #183, .T. ) ;
#231 = ORIENTED_EDGE ( 'NONE', *, *, #162, .F. ) ;
#232 = ADVANCED_FACE ( 'NONE', ( #94, #118 ), #141, .T. ) ;
#233 = CYLINDRICAL_SURFACE ( 'NONE', #169, 12.50000000000000000 ) ;
#234 = DIRECTION ( 'NONE',  ( -0.000000000000000000, -0.000000000000000000, -1.000000000000000000 ) ) ;
#235 = DIRECTION ( 'NONE',  ( 1.000000000000000000, 0.000000000000000000, -0.000000000000000000 ) ) ;
#236 = ADVANCED_FACE ( 'NONE', ( #170 ), #303, .F. ) ;
#237 = CARTESIAN_POINT ( 'NONE',  ( 0.000000000000000000, 0.000000000000000000, 640.0000000000000000 ) ) ;
#238 = DIRECTION ( 'NONE',  ( 0.000000000000000000, 0.000000000000000000, 1.000000000000000000 ) ) ;
#239 = PERSON_AND_ORGANIZATION_ROLE ( 'design_owner' ) ;
#240 = CIRCLE ( 'NONE', #45, 0.2000000000000005107 ) ;
#241 = APPROVAL_STATUS ( 'not_yet_approved' ) ;
#242 = EDGE_CURVE ( 'NONE', #292, #35, #281, .T. ) ;
#243 = ORIENTED_EDGE ( 'NONE', *, *, #213, .T. ) ;
#244 = APPROVAL_ROLE ( '' ) ;
#245 = EDGE_LOOP ( 'NONE', ( #30, #129, #206, #187 ) ) ;
#246 = EDGE_LOOP ( 'NONE', ( #243, #290 ) ) ;
#247 = VERTEX_POINT ( 'NONE', #212 ) ;
#248 = FACE_OUTER_BOUND ( 'NONE', #149, .T. ) ;
#249 = DIRECTION ( 'NONE',  ( -0.000000000000000000, -0.000000000000000000, -1.000000000000000000 ) ) ;
#250 = CARTESIAN_POINT ( 'NONE',  ( -12.70000000000000107, 1.555301434917138630E-15, 10.19999999999998685 ) ) ;
#251 = CARTESIAN_POINT ( 'NONE',  ( -12.50000000000000000, 0.000000000000000000, 640.0000000000000000 ) ) ;
#252 = DIRECTION ( 'NONE',  ( 1.000000000000000000, 0.000000000000000000, 0.000000000000000000 ) ) ;
#253 = CIRCLE ( 'NONE', #171, 12.50000000000000000 ) ;
#254 = DIRECTION ( 'NONE',  ( 0.000000000000000000, 0.000000000000000000, 1.000000000000000000 ) ) ;
#255 = DIRECTION ( 'NONE',  ( 1.000000000000000000, 0.000000000000000000, -0.000000000000000000 ) ) ;
#256 = EDGE_CURVE ( 'NONE', #35, #296, #130, .T. ) ;
#257 = DIRECTION ( 'NONE',  ( 1.000000000000000000, 0.000000000000000000, -0.000000000000000000 ) ) ;
#258 = FACE_OUTER_BOUND ( 'NONE', #177, .T. ) ;
#259 = COORDINATED_UNIVERSAL_TIME_OFFSET ( 1, 0, .AHEAD. ) ;
#260 = ADVANCED_FACE ( 'NONE', ( #17 ), #233, .T. ) ;
#261 = COORDINATED_UNIVERSAL_TIME_OFFSET ( 1, 0, .AHEAD. ) ;
#262 = AXIS2_PLACEMENT_3D ( 'NONE', #146, #238, #306 ) ;
#263 = DATE_AND_TIME ( #176, #32 ) ;
#264 = ORIENTED_EDGE ( 'NONE', *, *, #242, .F. ) ;
#265 = ORIENTED_EDGE ( 'NONE', *, *, #11, .T. ) ;
#266 = ORGANIZATION ( 'NEURÈENÝ', 'NEURÈENÝ', '' ) ;
#267 = FACE_OUTER_BOUND ( 'NONE', #221, .T. ) ;
#268 = CARTESIAN_POINT ( 'NONE',  ( 0.000000000000000000, 0.000000000000000000, 10.00000000000000000 ) ) ;
#269 = LOCAL_TIME ( 11, 31, 2.000000000000000000, #259 ) ;
#270 = CC_DESIGN_DATE_AND_TIME_ASSIGNMENT ( #151, #148, ( #185 ) ) ;
#271 = EDGE_LOOP ( 'NONE', ( #222, #265, #189, #203 ) ) ;
#272 = AXIS2_PLACEMENT_3D ( 'NONE', #226, #249, #274 ) ;
#273 = DIRECTION ( 'NONE',  ( 1.000000000000000000, 0.000000000000000000, 0.000000000000000000 ) ) ;
#274 = DIRECTION ( 'NONE',  ( -1.000000000000000000, 0.000000000000000000, 0.000000000000000000 ) ) ;
#275 = CC_DESIGN_DATE_AND_TIME_ASSIGNMENT ( #5, #102, ( #205 ) ) ;
#276 = DIRECTION ( 'NONE',  ( -0.000000000000000000, -0.000000000000000000, -1.000000000000000000 ) ) ;
#277 = CARTESIAN_POINT ( 'NONE',  ( 16.00000000000000000, 1.959434878635765131E-15, 10.00000000000000000 ) ) ;
#278 = EDGE_CURVE ( 'NONE', #64, #6, #86, .T. ) ;
#279 = DIRECTION ( 'NONE',  ( 0.000000000000000000, 0.000000000000000000, 1.000000000000000000 ) ) ;
#280 = DIRECTION ( 'NONE',  ( 0.000000000000000000, 0.000000000000000000, 1.000000000000000000 ) ) ;
#281 = LINE ( 'NONE', #194, #229 ) ;
#282 = CC_DESIGN_PERSON_AND_ORGANIZATION_ASSIGNMENT ( #122, #3, ( #156 ) ) ;
#283 = CC_DESIGN_SECURITY_CLASSIFICATION ( #185, ( #156 ) ) ;
#284 = APPROVAL_STATUS ( 'not_yet_approved' ) ;
#285 = ORIENTED_EDGE ( 'NONE', *, *, #117, .T. ) ;
#286 = DATE_AND_TIME ( #97, #49 ) ;
#287 = ORIENTED_EDGE ( 'NONE', *, *, #256, .F. ) ;
#288 = PERSON_AND_ORGANIZATION_ROLE ( 'design_supplier' ) ;
#289 = CC_DESIGN_PERSON_AND_ORGANIZATION_ASSIGNMENT ( #81, #59, ( #185 ) ) ;
#290 = ORIENTED_EDGE ( 'NONE', *, *, #133, .T. ) ;
#291 = CARTESIAN_POINT ( 'NONE',  ( 0.000000000000000000, 0.000000000000000000, 0.000000000000000000 ) ) ;
#292 = VERTEX_POINT ( 'NONE', #305 ) ;
#293 = ORIENTED_EDGE ( 'NONE', *, *, #213, .F. ) ;
#294 = CIRCLE ( 'NONE', #28, 16.00000000000000000 ) ;
#295 = EDGE_LOOP ( 'NONE', ( #155, #175, #285, #37 ) ) ;
#296 = VERTEX_POINT ( 'NONE', #93 ) ;
#297 = APPROVAL_PERSON_ORGANIZATION ( #54, #210, #220 ) ;
#298 = ORIENTED_EDGE ( 'NONE', *, *, #71, .T. ) ;
#299 = PRODUCT_DEFINITION_SHAPE ( 'NONE', 'NONE',  #205 ) ;
#300 = EDGE_CURVE ( 'NONE', #247, #6, #96, .T. ) ;
#301 = CARTESIAN_POINT ( 'NONE',  ( 12.70000000000000107, 0.000000000000000000, 9.999999999999992895 ) ) ;
#302 =( LENGTH_UNIT ( ) NAMED_UNIT ( * ) SI_UNIT ( .MILLI., .METRE. ) );
#303 = TOROIDAL_SURFACE ( 'NONE', #125, 12.70000000000000107, 0.2000000000000000111 ) ;
#304 = DIRECTION ( 'NONE',  ( -0.000000000000000000, -0.000000000000000000, -1.000000000000000000 ) ) ;
#305 = CARTESIAN_POINT ( 'NONE',  ( -16.00000000000000000, 0.000000000000000000, 10.00000000000000000 ) ) ;
#306 = DIRECTION ( 'NONE',  ( 1.000000000000000000, 0.000000000000000000, 0.000000000000000000 ) ) ;
#307 = DIRECTION ( 'NONE',  ( -0.000000000000000000, -0.000000000000000000, -1.000000000000000000 ) ) ;
ENDSEC;
END-ISO-10303-21;
