ISO-10303-21;
HEADER;
FILE_DESCRIPTION (( 'STEP AP203' ),
    '1' );
FILE_NAME ('50db.STEP',
    '2022-07-07T09:58:40',
    ( '' ),
    ( '' ),
    'SwSTEP 2.0',
    'SolidWorks 2019',
    '' );
FILE_SCHEMA (( 'CONFIG_CONTROL_DESIGN' ));
ENDSEC;

DATA;
#1 = DIRECTION ( 'NONE',  ( 0.000000000000000000, 0.000000000000000000, 1.000000000000000000 ) ) ;
#2 = CARTESIAN_POINT ( 'NONE',  ( 0.000000000000000000, 0.000000000000000000, 5.000000000000000000 ) ) ;
#3 = VERTEX_POINT ( 'NONE', #261 ) ;
#4 = DIRECTION ( 'NONE',  ( 1.000000000000000000, 0.000000000000000000, 0.000000000000000000 ) ) ;
#5 = PERSON_AND_ORGANIZATION ( #246, #71 ) ;
#6 = CARTESIAN_POINT ( 'NONE',  ( 0.000000000000000000, 0.000000000000000000, 255.0000000000000000 ) ) ;
#7 = APPROVAL_DATE_TIME ( #109, #135 ) ;
#8 = FACE_OUTER_BOUND ( 'NONE', #72, .T. ) ;
#9 = EDGE_LOOP ( 'NONE', ( #137, #121, #201, #280 ) ) ;
#10 = COORDINATED_UNIVERSAL_TIME_OFFSET ( 1, 0, .AHEAD. ) ;
#11 = DIRECTION ( 'NONE',  ( 1.000000000000000000, 0.000000000000000000, -0.000000000000000000 ) ) ;
#12 = EDGE_CURVE ( 'NONE', #3, #198, #111, .T. ) ;
#13 =( LENGTH_UNIT ( ) NAMED_UNIT ( * ) SI_UNIT ( .MILLI., .METRE. ) );
#14 = AXIS2_PLACEMENT_3D ( 'NONE', #183, #159, #88 ) ;
#15 = PERSON_AND_ORGANIZATION ( #246, #71 ) ;
#16 = CIRCLE ( 'NONE', #190, 4.250000000000000000 ) ;
#17 = EDGE_LOOP ( 'NONE', ( #142, #188, #96, #256 ) ) ;
#18 = DIRECTION ( 'NONE',  ( -0.000000000000000000, -0.000000000000000000, -1.000000000000000000 ) ) ;
#19 = CARTESIAN_POINT ( 'NONE',  ( 4.250000000000000000, 5.204748896376250699E-16, 5.200000000000009948 ) ) ;
#20 = ADVANCED_FACE ( 'NONE', ( #171 ), #306, .F. ) ;
#21 = EDGE_LOOP ( 'NONE', ( #163, #231 ) ) ;
#22 = APPROVAL_PERSON_ORGANIZATION ( #144, #288, #291 ) ;
#23 = ORIENTED_EDGE ( 'NONE', *, *, #141, .F. ) ;
#24 = CARTESIAN_POINT ( 'NONE',  ( 0.000000000000000000, 0.000000000000000000, 5.000000000000000000 ) ) ;
#25 = AXIS2_PLACEMENT_3D ( 'NONE', #290, #196, #244 ) ;
#26 = CC_DESIGN_PERSON_AND_ORGANIZATION_ASSIGNMENT ( #28, #289, ( #255 ) ) ;
#27 = CARTESIAN_POINT ( 'NONE',  ( -4.250000000000000000, 0.000000000000000000, 255.0000000000000000 ) ) ;
#28 = PERSON_AND_ORGANIZATION ( #246, #71 ) ;
#29 = CC_DESIGN_SECURITY_CLASSIFICATION ( #51, ( #187 ) ) ;
#30 = DIRECTION ( 'NONE',  ( 1.000000000000000000, 0.000000000000000000, 0.000000000000000000 ) ) ;
#31 = PERSON_AND_ORGANIZATION_ROLE ( 'design_supplier' ) ;
#32 = CARTESIAN_POINT ( 'NONE',  ( 7.000000000000000000, 8.572527594031473190E-16, 5.000000000000000000 ) ) ;
#33 = AXIS2_PLACEMENT_3D ( 'NONE', #48, #140, #282 ) ;
#34 = EDGE_CURVE ( 'NONE', #115, #213, #226, .T. ) ;
#35 = CARTESIAN_POINT ( 'NONE',  ( 0.000000000000000000, 0.000000000000000000, 5.200000000000009948 ) ) ;
#36 = CALENDAR_DATE ( 2022, 7, 7 ) ;
#37 = AXIS2_PLACEMENT_3D ( 'NONE', #221, #131, #152 ) ;
#38 = CARTESIAN_POINT ( 'NONE',  ( 0.000000000000000000, 0.000000000000000000, 5.000000000000000000 ) ) ;
#39 = APPROVAL ( #63, 'NEURÈENÝ' ) ;
#40 = CARTESIAN_POINT ( 'NONE',  ( -7.000000000000000000, 0.000000000000000000, 5.000000000000000000 ) ) ;
#41 = PERSON_AND_ORGANIZATION ( #246, #71 ) ;
#42 = CIRCLE ( 'NONE', #56, 4.450000000000000178 ) ;
#43 = DIRECTION ( 'NONE',  ( 0.000000000000000000, 0.000000000000000000, 1.000000000000000000 ) ) ;
#44 = ORIENTED_EDGE ( 'NONE', *, *, #45, .F. ) ;
#45 = EDGE_CURVE ( 'NONE', #110, #191, #266, .T. ) ;
#46 = EDGE_LOOP ( 'NONE', ( #297, #224 ) ) ;
#47 = FACE_BOUND ( 'NONE', #46, .T. ) ;
#48 = CARTESIAN_POINT ( 'NONE',  ( 0.000000000000000000, 0.000000000000000000, 255.0000000000000000 ) ) ;
#49 = FACE_OUTER_BOUND ( 'NONE', #156, .T. ) ;
#50 = AXIS2_PLACEMENT_3D ( 'NONE', #35, #125, #102 ) ;
#51 = SECURITY_CLASSIFICATION ( '', '', #245 ) ;
#52 = DIRECTION ( 'NONE',  ( 0.000000000000000000, 0.000000000000000000, 1.000000000000000000 ) ) ;
#53 = APPROVAL_ROLE ( '' ) ;
#54 = ADVANCED_FACE ( 'NONE', ( #47, #258 ), #236, .T. ) ;
#55 = CARTESIAN_POINT ( 'NONE',  ( 4.450000000000000178, 0.000000000000000000, 5.000000000000005329 ) ) ;
#56 = AXIS2_PLACEMENT_3D ( 'NONE', #182, #157, #161 ) ;
#57 = CARTESIAN_POINT ( 'NONE',  ( 0.000000000000000000, 0.000000000000000000, 5.000000000000000000 ) ) ;
#58 = DIRECTION ( 'NONE',  ( 0.000000000000000000, 0.000000000000000000, 1.000000000000000000 ) ) ;
#59 = CC_DESIGN_DATE_AND_TIME_ASSIGNMENT ( #220, #60, ( #51 ) ) ;
#60 = DATE_TIME_ROLE ( 'classification_date' ) ;
#61 = MANIFOLD_SOLID_BREP ( 'Zaoblit1', #200 ) ;
#62 = CC_DESIGN_PERSON_AND_ORGANIZATION_ASSIGNMENT ( #175, #216, ( #51 ) ) ;
#63 = APPROVAL_STATUS ( 'not_yet_approved' ) ;
#64 = ORIENTED_EDGE ( 'NONE', *, *, #69, .T. ) ;
#65 = VECTOR ( 'NONE', #268, 1000.000000000000000 ) ;
#66 = ADVANCED_BREP_SHAPE_REPRESENTATION ( '50db', ( #61, #127 ), #204 ) ;
#67 = AXIS2_PLACEMENT_3D ( 'NONE', #260, #212, #138 ) ;
#68 = ORIENTED_EDGE ( 'NONE', *, *, #87, .F. ) ;
#69 = EDGE_CURVE ( 'NONE', #162, #286, #285, .T. ) ;
#70 = DIRECTION ( 'NONE',  ( 1.000000000000000000, 0.000000000000000000, -0.000000000000000000 ) ) ;
#71 = ORGANIZATION ( 'NEURÈENÝ', 'NEURÈENÝ', '' ) ;
#72 = EDGE_LOOP ( 'NONE', ( #44, #238, #95, #23 ) ) ;
#73 = DIRECTION ( 'NONE',  ( -0.000000000000000000, -0.000000000000000000, -1.000000000000000000 ) ) ;
#74 = VERTEX_POINT ( 'NONE', #19 ) ;
#75 = CC_DESIGN_DATE_AND_TIME_ASSIGNMENT ( #150, #179, ( #255 ) ) ;
#76 = AXIS2_PLACEMENT_3D ( 'NONE', #57, #174, #264 ) ;
#77 = LOCAL_TIME ( 11, 58, 40.00000000000000000, #132 ) ;
#78 = LINE ( 'NONE', #193, #65 ) ;
#79 = COORDINATED_UNIVERSAL_TIME_OFFSET ( 1, 0, .AHEAD. ) ;
#80 = CIRCLE ( 'NONE', #119, 4.250000000000000000 ) ;
#81 = APPROVAL_STATUS ( 'not_yet_approved' ) ;
#82 = CARTESIAN_POINT ( 'NONE',  ( -4.450000000000000178, 5.449678256205721784E-16, 5.000000000000005329 ) ) ;
#83 = PRODUCT_RELATED_PRODUCT_CATEGORY ( 'detail', '', ( #165 ) ) ;
#84 = DIRECTION ( 'NONE',  ( -1.000000000000000000, 0.000000000000000000, 0.000000000000000000 ) ) ;
#85 = DATE_AND_TIME ( #36, #112 ) ;
#86 = EDGE_LOOP ( 'NONE', ( #214, #278, #304, #164 ) ) ;
#87 = EDGE_CURVE ( 'NONE', #110, #74, #284, .T. ) ;
#88 = DIRECTION ( 'NONE',  ( 0.000000000000000000, 0.000000000000000000, -1.000000000000000000 ) ) ;
#89 = APPROVAL_PERSON_ORGANIZATION ( #41, #39, #223 ) ;
#90 = MECHANICAL_CONTEXT ( 'NONE', #195, 'mechanical' ) ;
#91 = APPLICATION_PROTOCOL_DEFINITION ( 'international standard', 'config_control_design', 1994, #239 ) ;
#92 = EDGE_CURVE ( 'NONE', #191, #110, #16, .T. ) ;
#93 = AXIS2_PLACEMENT_3D ( 'NONE', #104, #151, #4 ) ;
#94 = AXIS2_PLACEMENT_3D ( 'NONE', #240, #209, #167 ) ;
#95 = ORIENTED_EDGE ( 'NONE', *, *, #113, .T. ) ;
#96 = ORIENTED_EDGE ( 'NONE', *, *, #211, .T. ) ;
#97 = EDGE_LOOP ( 'NONE', ( #186, #215 ) ) ;
#98 = ADVANCED_FACE ( 'NONE', ( #49 ), #99, .T. ) ;
#99 = CYLINDRICAL_SURFACE ( 'NONE', #250, 7.000000000000000000 ) ;
#100 = EDGE_LOOP ( 'NONE', ( #233, #263 ) ) ;
#101 = APPROVAL_STATUS ( 'not_yet_approved' ) ;
#102 = DIRECTION ( 'NONE',  ( 1.000000000000000000, 0.000000000000000000, 0.000000000000000000 ) ) ;
#103 = SHAPE_DEFINITION_REPRESENTATION ( #259, #66 ) ;
#104 = CARTESIAN_POINT ( 'NONE',  ( 0.000000000000000000, 0.000000000000000000, 5.200000000000009948 ) ) ;
#105 = CARTESIAN_POINT ( 'NONE',  ( 0.000000000000000000, 0.000000000000000000, 255.0000000000000000 ) ) ;
#106 = CALENDAR_DATE ( 2022, 7, 7 ) ;
#107 = AXIS2_PLACEMENT_3D ( 'NONE', #6, #176, #192 ) ;
#108 = ORIENTED_EDGE ( 'NONE', *, *, #206, .F. ) ;
#109 = DATE_AND_TIME ( #265, #77 ) ;
#110 = VERTEX_POINT ( 'NONE', #128 ) ;
#111 = CIRCLE ( 'NONE', #67, 0.1999999999999996503 ) ;
#112 = LOCAL_TIME ( 11, 58, 40.00000000000000000, #79 ) ;
#113 = EDGE_CURVE ( 'NONE', #74, #3, #80, .T. ) ;
#114 = AXIS2_PLACEMENT_3D ( 'NONE', #2, #1, #139 ) ;
#115 = VERTEX_POINT ( 'NONE', #194 ) ;
#116 = ORIENTED_EDGE ( 'NONE', *, *, #92, .F. ) ;
#117 = DIRECTION ( 'NONE',  ( 0.000000000000000000, 0.000000000000000000, 1.000000000000000000 ) ) ;
#118 = CC_DESIGN_PERSON_AND_ORGANIZATION_ASSIGNMENT ( #294, #31, ( #187 ) ) ;
#119 = AXIS2_PLACEMENT_3D ( 'NONE', #180, #58, #217 ) ;
#120 = CARTESIAN_POINT ( 'NONE',  ( 4.250000000000000000, 5.204748896376250699E-16, 255.0000000000000000 ) ) ;
#121 = ORIENTED_EDGE ( 'NONE', *, *, #113, .F. ) ;
#122 = LOCAL_TIME ( 11, 58, 40.00000000000000000, #181 ) ;
#123 = CARTESIAN_POINT ( 'NONE',  ( 0.000000000000000000, 0.000000000000000000, 255.0000000000000000 ) ) ;
#124 = ORIENTED_EDGE ( 'NONE', *, *, #248, .T. ) ;
#125 = DIRECTION ( 'NONE',  ( 0.000000000000000000, 0.000000000000000000, 1.000000000000000000 ) ) ;
#126 = ADVANCED_FACE ( 'NONE', ( #241 ), #254, .F. ) ;
#127 = AXIS2_PLACEMENT_3D ( 'NONE', #229, #225, #202 ) ;
#128 = CARTESIAN_POINT ( 'NONE',  ( 4.250000000000000000, 5.204748896376250699E-16, 255.0000000000000000 ) ) ;
#129 = CALENDAR_DATE ( 2022, 7, 7 ) ;
#130 = DIRECTION ( 'NONE',  ( -0.000000000000000000, -0.000000000000000000, -1.000000000000000000 ) ) ;
#131 = DIRECTION ( 'NONE',  ( -0.000000000000000000, -0.000000000000000000, -1.000000000000000000 ) ) ;
#132 = COORDINATED_UNIVERSAL_TIME_OFFSET ( 1, 0, .AHEAD. ) ;
#133 = CIRCLE ( 'NONE', #302, 7.000000000000000000 ) ;
#134 = ADVANCED_FACE ( 'NONE', ( #178 ), #218, .T. ) ;
#135 = APPROVAL ( #101, 'NEURÈENÝ' ) ;
#136 = FACE_OUTER_BOUND ( 'NONE', #17, .T. ) ;
#137 = ORIENTED_EDGE ( 'NONE', *, *, #12, .F. ) ;
#138 = DIRECTION ( 'NONE',  ( -1.000000000000000000, 1.224646799147353454E-16, 0.000000000000000000 ) ) ;
#139 = DIRECTION ( 'NONE',  ( 1.000000000000000000, 0.000000000000000000, -0.000000000000000000 ) ) ;
#140 = DIRECTION ( 'NONE',  ( 0.000000000000000000, 0.000000000000000000, 1.000000000000000000 ) ) ;
#141 = EDGE_CURVE ( 'NONE', #191, #3, #78, .T. ) ;
#142 = ORIENTED_EDGE ( 'NONE', *, *, #34, .F. ) ;
#143 = ORIENTED_EDGE ( 'NONE', *, *, #141, .T. ) ;
#144 = PERSON_AND_ORGANIZATION ( #246, #71 ) ;
#145 = AXIS2_PLACEMENT_3D ( 'NONE', #279, #117, #70 ) ;
#146 = CYLINDRICAL_SURFACE ( 'NONE', #257, 4.250000000000000000 ) ;
#147 = CALENDAR_DATE ( 2022, 7, 7 ) ;
#148 = CARTESIAN_POINT ( 'NONE',  ( 0.000000000000000000, 0.000000000000000000, 0.000000000000000000 ) ) ;
#149 = CC_DESIGN_APPROVAL ( #288, ( #187 ) ) ;
#150 = DATE_AND_TIME ( #106, #122 ) ;
#151 = DIRECTION ( 'NONE',  ( 0.000000000000000000, 0.000000000000000000, 1.000000000000000000 ) ) ;
#152 = DIRECTION ( 'NONE',  ( 1.000000000000000000, 0.000000000000000000, 0.000000000000000000 ) ) ;
#153 = AXIS2_PLACEMENT_3D ( 'NONE', #234, #189, #235 ) ;
#154 = ADVANCED_FACE ( 'NONE', ( #292 ), #184, .F. ) ;
#155 = DATE_AND_TIME ( #147, #281 ) ;
#156 = EDGE_LOOP ( 'NONE', ( #108, #169, #124, #64 ) ) ;
#157 = DIRECTION ( 'NONE',  ( -0.000000000000000000, -0.000000000000000000, -1.000000000000000000 ) ) ;
#158 = AXIS2_PLACEMENT_3D ( 'NONE', #301, #43, #11 ) ;
#159 = DIRECTION ( 'NONE',  ( 0.000000000000000000, -1.000000000000000000, 0.000000000000000000 ) ) ;
#160 = CC_DESIGN_PERSON_AND_ORGANIZATION_ASSIGNMENT ( #5, #273, ( #187 ) ) ;
#161 = DIRECTION ( 'NONE',  ( 1.000000000000000000, 0.000000000000000000, 0.000000000000000000 ) ) ;
#162 = VERTEX_POINT ( 'NONE', #243 ) ;
#163 = ORIENTED_EDGE ( 'NONE', *, *, #69, .F. ) ;
#164 = ORIENTED_EDGE ( 'NONE', *, *, #252, .F. ) ;
#165 = PRODUCT ( '50db', '50db', '', ( #90 ) ) ;
#166 = CC_DESIGN_APPROVAL ( #39, ( #255 ) ) ;
#167 = DIRECTION ( 'NONE',  ( 1.000000000000000000, 0.000000000000000000, 0.000000000000000000 ) ) ;
#168 = EDGE_CURVE ( 'NONE', #3, #74, #222, .T. ) ;
#169 = ORIENTED_EDGE ( 'NONE', *, *, #227, .F. ) ;
#170 = DIRECTION ( 'NONE',  ( 1.000000000000000000, 0.000000000000000000, 0.000000000000000000 ) ) ;
#171 = FACE_OUTER_BOUND ( 'NONE', #21, .T. ) ;
#172 = CIRCLE ( 'NONE', #37, 4.450000000000000178 ) ;
#173 = PERSON_AND_ORGANIZATION ( #246, #71 ) ;
#174 = DIRECTION ( 'NONE',  ( 0.000000000000000000, 0.000000000000000000, 1.000000000000000000 ) ) ;
#175 = PERSON_AND_ORGANIZATION ( #246, #71 ) ;
#176 = DIRECTION ( 'NONE',  ( -0.000000000000000000, -0.000000000000000000, -1.000000000000000000 ) ) ;
#177 = APPROVAL_DATE_TIME ( #85, #39 ) ;
#178 = FACE_OUTER_BOUND ( 'NONE', #274, .T. ) ;
#179 = DATE_TIME_ROLE ( 'creation_date' ) ;
#180 = CARTESIAN_POINT ( 'NONE',  ( 0.000000000000000000, 0.000000000000000000, 5.200000000000009948 ) ) ;
#181 = COORDINATED_UNIVERSAL_TIME_OFFSET ( 1, 0, .AHEAD. ) ;
#182 = CARTESIAN_POINT ( 'NONE',  ( 0.000000000000000000, 0.000000000000000000, 5.000000000000000000 ) ) ;
#183 = CARTESIAN_POINT ( 'NONE',  ( 4.450000000000000178, 0.000000000000000000, 5.200000000000009948 ) ) ;
#184 = TOROIDAL_SURFACE ( 'NONE', #50, 4.450000000000000178, 0.2000000000000000111 ) ;
#185 = VERTEX_POINT ( 'NONE', #55 ) ;
#186 = ORIENTED_EDGE ( 'NONE', *, *, #227, .T. ) ;
#187 = PRODUCT_DEFINITION_FORMATION_WITH_SPECIFIED_SOURCE ( 'LIBOVOLNÝ', '', #165, .NOT_KNOWN. ) ;
#188 = ORIENTED_EDGE ( 'NONE', *, *, #206, .T. ) ;
#189 = DIRECTION ( 'NONE',  ( 0.000000000000000000, 0.000000000000000000, 1.000000000000000000 ) ) ;
#190 = AXIS2_PLACEMENT_3D ( 'NONE', #123, #52, #170 ) ;
#191 = VERTEX_POINT ( 'NONE', #27 ) ;
#192 = DIRECTION ( 'NONE',  ( -1.000000000000000000, 0.000000000000000000, 0.000000000000000000 ) ) ;
#193 = CARTESIAN_POINT ( 'NONE',  ( -4.250000000000000000, 0.000000000000000000, 255.0000000000000000 ) ) ;
#194 = CARTESIAN_POINT ( 'NONE',  ( 7.000000000000000000, 8.572527594031473190E-16, 5.000000000000000000 ) ) ;
#195 = APPLICATION_CONTEXT ( 'configuration controlled 3d designs of mechanical parts and assemblies' ) ;
#196 = DIRECTION ( 'NONE',  ( 0.000000000000000000, 0.000000000000000000, 1.000000000000000000 ) ) ;
#197 = COORDINATED_UNIVERSAL_TIME_OFFSET ( 1, 0, .AHEAD. ) ;
#198 = VERTEX_POINT ( 'NONE', #82 ) ;
#199 = PLANE ( 'NONE',  #158 ) ;
#200 = CLOSED_SHELL ( 'NONE', ( #154, #230, #283, #98, #54, #20, #134, #295, #126 ) ) ;
#201 = ORIENTED_EDGE ( 'NONE', *, *, #252, .T. ) ;
#202 = DIRECTION ( 'NONE',  ( 1.000000000000000000, 0.000000000000000000, 0.000000000000000000 ) ) ;
#203 =( NAMED_UNIT ( * ) PLANE_ANGLE_UNIT ( ) SI_UNIT ( $, .RADIAN. ) );
#204 =( GEOMETRIC_REPRESENTATION_CONTEXT ( 3 ) GLOBAL_UNCERTAINTY_ASSIGNED_CONTEXT ( ( #307 ) ) GLOBAL_UNIT_ASSIGNED_CONTEXT ( ( #13, #203, #296 ) ) REPRESENTATION_CONTEXT ( 'NONE', 'WORKASPACE' ) );
#205 = CARTESIAN_POINT ( 'NONE',  ( 7.000000000000000000, 8.572527594031473190E-16, 0.000000000000000000 ) ) ;
#206 = EDGE_CURVE ( 'NONE', #115, #286, #272, .T. ) ;
#207 = CIRCLE ( 'NONE', #76, 7.000000000000000000 ) ;
#208 = VECTOR ( 'NONE', #298, 1000.000000000000000 ) ;
#209 = DIRECTION ( 'NONE',  ( 0.000000000000000000, 0.000000000000000000, 1.000000000000000000 ) ) ;
#210 = DESIGN_CONTEXT ( 'detailed design', #239, 'design' ) ;
#211 = EDGE_CURVE ( 'NONE', #286, #162, #133, .T. ) ;
#212 = DIRECTION ( 'NONE',  ( 1.224646799147353207E-16, 1.000000000000000000, -0.000000000000000000 ) ) ;
#213 = VERTEX_POINT ( 'NONE', #270 ) ;
#214 = ORIENTED_EDGE ( 'NONE', *, *, #168, .F. ) ;
#215 = ORIENTED_EDGE ( 'NONE', *, *, #34, .T. ) ;
#216 = PERSON_AND_ORGANIZATION_ROLE ( 'classification_officer' ) ;
#217 = DIRECTION ( 'NONE',  ( 1.000000000000000000, 0.000000000000000000, 0.000000000000000000 ) ) ;
#218 = CYLINDRICAL_SURFACE ( 'NONE', #107, 4.250000000000000000 ) ;
#219 = EDGE_CURVE ( 'NONE', #198, #185, #172, .T. ) ;
#220 = DATE_AND_TIME ( #129, #299 ) ;
#221 = CARTESIAN_POINT ( 'NONE',  ( 0.000000000000000000, 0.000000000000000000, 5.000000000000000000 ) ) ;
#222 = CIRCLE ( 'NONE', #93, 4.250000000000000000 ) ;
#223 = APPROVAL_ROLE ( '' ) ;
#224 = ORIENTED_EDGE ( 'NONE', *, *, #219, .T. ) ;
#225 = DIRECTION ( 'NONE',  ( 0.000000000000000000, 0.000000000000000000, 1.000000000000000000 ) ) ;
#226 = CIRCLE ( 'NONE', #94, 7.000000000000000000 ) ;
#227 = EDGE_CURVE ( 'NONE', #213, #115, #207, .T. ) ;
#228 = LINE ( 'NONE', #40, #208 ) ;
#229 = CARTESIAN_POINT ( 'NONE',  ( 0.000000000000000000, 0.000000000000000000, 0.000000000000000000 ) ) ;
#230 = ADVANCED_FACE ( 'NONE', ( #8 ), #146, .T. ) ;
#231 = ORIENTED_EDGE ( 'NONE', *, *, #211, .F. ) ;
#232 = APPROVAL_PERSON_ORGANIZATION ( #173, #135, #53 ) ;
#233 = ORIENTED_EDGE ( 'NONE', *, *, #92, .T. ) ;
#234 = CARTESIAN_POINT ( 'NONE',  ( 0.000000000000000000, 0.000000000000000000, 0.000000000000000000 ) ) ;
#235 = DIRECTION ( 'NONE',  ( 1.000000000000000000, 0.000000000000000000, 0.000000000000000000 ) ) ;
#236 = PLANE ( 'NONE',  #114 ) ;
#237 = CIRCLE ( 'NONE', #14, 0.1999999999999996503 ) ;
#238 = ORIENTED_EDGE ( 'NONE', *, *, #87, .T. ) ;
#239 = APPLICATION_CONTEXT ( 'configuration controlled 3d designs of mechanical parts and assemblies' ) ;
#240 = CARTESIAN_POINT ( 'NONE',  ( 0.000000000000000000, 0.000000000000000000, 5.000000000000000000 ) ) ;
#241 = FACE_OUTER_BOUND ( 'NONE', #9, .T. ) ;
#242 = DIRECTION ( 'NONE',  ( 0.000000000000000000, 0.000000000000000000, 1.000000000000000000 ) ) ;
#243 = CARTESIAN_POINT ( 'NONE',  ( -7.000000000000000000, 0.000000000000000000, 0.000000000000000000 ) ) ;
#244 = DIRECTION ( 'NONE',  ( 1.000000000000000000, 0.000000000000000000, 0.000000000000000000 ) ) ;
#245 = SECURITY_CLASSIFICATION_LEVEL ( 'unclassified' ) ;
#246 = PERSON ( 'NEURÈENÝ', 'NEURÈENÝ', 'NEURÈENÝ', ('NEURÈENÝ'), ('NEURÈENÝ'), ('NEURÈENÝ') ) ;
#247 = CYLINDRICAL_SURFACE ( 'NONE', #271, 7.000000000000000000 ) ;
#248 = EDGE_CURVE ( 'NONE', #213, #162, #228, .T. ) ;
#249 = DIRECTION ( 'NONE',  ( -0.000000000000000000, -0.000000000000000000, -1.000000000000000000 ) ) ;
#250 = AXIS2_PLACEMENT_3D ( 'NONE', #24, #18, #287 ) ;
#251 = FACE_OUTER_BOUND ( 'NONE', #100, .T. ) ;
#252 = EDGE_CURVE ( 'NONE', #74, #185, #237, .T. ) ;
#253 = ORIENTED_EDGE ( 'NONE', *, *, #168, .T. ) ;
#254 = TOROIDAL_SURFACE ( 'NONE', #25, 4.450000000000000178, 0.2000000000000000111 ) ;
#255 = PRODUCT_DEFINITION ( 'NEZNÁMÝ', '', #187, #210 ) ;
#256 = ORIENTED_EDGE ( 'NONE', *, *, #248, .F. ) ;
#257 = AXIS2_PLACEMENT_3D ( 'NONE', #105, #293, #84 ) ;
#258 = FACE_OUTER_BOUND ( 'NONE', #97, .T. ) ;
#259 = PRODUCT_DEFINITION_SHAPE ( 'NONE', 'NONE',  #255 ) ;
#260 = CARTESIAN_POINT ( 'NONE',  ( -4.450000000000000178, 5.449678256205721784E-16, 5.200000000000009948 ) ) ;
#261 = CARTESIAN_POINT ( 'NONE',  ( -4.250000000000000000, 0.000000000000000000, 5.200000000000009948 ) ) ;
#262 = VECTOR ( 'NONE', #130, 1000.000000000000000 ) ;
#263 = ORIENTED_EDGE ( 'NONE', *, *, #45, .T. ) ;
#264 = DIRECTION ( 'NONE',  ( 1.000000000000000000, 0.000000000000000000, 0.000000000000000000 ) ) ;
#265 = CALENDAR_DATE ( 2022, 7, 7 ) ;
#266 = CIRCLE ( 'NONE', #33, 4.250000000000000000 ) ;
#267 = CC_DESIGN_PERSON_AND_ORGANIZATION_ASSIGNMENT ( #15, #275, ( #165 ) ) ;
#268 = DIRECTION ( 'NONE',  ( -0.000000000000000000, -0.000000000000000000, -1.000000000000000000 ) ) ;
#269 = APPROVAL_DATE_TIME ( #155, #288 ) ;
#270 = CARTESIAN_POINT ( 'NONE',  ( -7.000000000000000000, 0.000000000000000000, 5.000000000000000000 ) ) ;
#271 = AXIS2_PLACEMENT_3D ( 'NONE', #38, #249, #277 ) ;
#272 = LINE ( 'NONE', #32, #262 ) ;
#273 = PERSON_AND_ORGANIZATION_ROLE ( 'creator' ) ;
#274 = EDGE_LOOP ( 'NONE', ( #68, #116, #143, #253 ) ) ;
#275 = PERSON_AND_ORGANIZATION_ROLE ( 'design_owner' ) ;
#276 = EDGE_CURVE ( 'NONE', #185, #198, #42, .T. ) ;
#277 = DIRECTION ( 'NONE',  ( -1.000000000000000000, 0.000000000000000000, 0.000000000000000000 ) ) ;
#278 = ORIENTED_EDGE ( 'NONE', *, *, #12, .T. ) ;
#279 = CARTESIAN_POINT ( 'NONE',  ( 0.000000000000000000, 0.000000000000000000, 0.000000000000000000 ) ) ;
#280 = ORIENTED_EDGE ( 'NONE', *, *, #219, .F. ) ;
#281 = LOCAL_TIME ( 11, 58, 40.00000000000000000, #197 ) ;
#282 = DIRECTION ( 'NONE',  ( 1.000000000000000000, 0.000000000000000000, 0.000000000000000000 ) ) ;
#283 = ADVANCED_FACE ( 'NONE', ( #136 ), #247, .T. ) ;
#284 = LINE ( 'NONE', #120, #305 ) ;
#285 = CIRCLE ( 'NONE', #153, 7.000000000000000000 ) ;
#286 = VERTEX_POINT ( 'NONE', #205 ) ;
#287 = DIRECTION ( 'NONE',  ( -1.000000000000000000, 0.000000000000000000, 0.000000000000000000 ) ) ;
#288 = APPROVAL ( #81, 'NEURÈENÝ' ) ;
#289 = PERSON_AND_ORGANIZATION_ROLE ( 'creator' ) ;
#290 = CARTESIAN_POINT ( 'NONE',  ( 0.000000000000000000, 0.000000000000000000, 5.200000000000009948 ) ) ;
#291 = APPROVAL_ROLE ( '' ) ;
#292 = FACE_OUTER_BOUND ( 'NONE', #86, .T. ) ;
#293 = DIRECTION ( 'NONE',  ( -0.000000000000000000, -0.000000000000000000, -1.000000000000000000 ) ) ;
#294 = PERSON_AND_ORGANIZATION ( #246, #71 ) ;
#295 = ADVANCED_FACE ( 'NONE', ( #251 ), #199, .T. ) ;
#296 =( NAMED_UNIT ( * ) SI_UNIT ( $, .STERADIAN. ) SOLID_ANGLE_UNIT ( ) );
#297 = ORIENTED_EDGE ( 'NONE', *, *, #276, .T. ) ;
#298 = DIRECTION ( 'NONE',  ( -0.000000000000000000, -0.000000000000000000, -1.000000000000000000 ) ) ;
#299 = LOCAL_TIME ( 11, 58, 40.00000000000000000, #10 ) ;
#300 = APPLICATION_PROTOCOL_DEFINITION ( 'international standard', 'config_control_design', 1994, #195 ) ;
#301 = CARTESIAN_POINT ( 'NONE',  ( 0.000000000000000000, 0.000000000000000000, 255.0000000000000000 ) ) ;
#302 = AXIS2_PLACEMENT_3D ( 'NONE', #148, #242, #30 ) ;
#303 = CC_DESIGN_APPROVAL ( #135, ( #51 ) ) ;
#304 = ORIENTED_EDGE ( 'NONE', *, *, #276, .F. ) ;
#305 = VECTOR ( 'NONE', #73, 1000.000000000000000 ) ;
#306 = PLANE ( 'NONE',  #145 ) ;
#307 = UNCERTAINTY_MEASURE_WITH_UNIT (LENGTH_MEASURE( 1.000000000000000082E-05 ), #13, 'distance_accuracy_value', 'NONE');
ENDSEC;
END-ISO-10303-21;
