ISO-10303-21;
HEADER;
FILE_DESCRIPTION (( 'STEP AP203' ),
    '1' );
FILE_NAME ('c175.STEP',
    '2022-07-07T09:29:46',
    ( '' ),
    ( '' ),
    'SwSTEP 2.0',
    'SolidWorks 2019',
    '' );
FILE_SCHEMA (( 'CONFIG_CONTROL_DESIGN' ));
ENDSEC;

DATA;
#1 = ORIENTED_EDGE ( 'NONE', *, *, #70, .T. ) ;
#2 = APPROVAL_ROLE ( '' ) ;
#3 = DIRECTION ( 'NONE',  ( 1.000000000000000000, 0.000000000000000000, 0.000000000000000000 ) ) ;
#4 = FACE_OUTER_BOUND ( 'NONE', #249, .T. ) ;
#5 = DIRECTION ( 'NONE',  ( 1.000000000000000000, 0.000000000000000000, 0.000000000000000000 ) ) ;
#6 = CARTESIAN_POINT ( 'NONE',  ( 0.000000000000000000, 0.000000000000000000, 210.0000000000000284 ) ) ;
#7 = FACE_OUTER_BOUND ( 'NONE', #242, .T. ) ;
#8 = CARTESIAN_POINT ( 'NONE',  ( 0.000000000000000000, 0.000000000000000000, 10.00000000000000000 ) ) ;
#9 = PERSON_AND_ORGANIZATION_ROLE ( 'design_owner' ) ;
#10 = ORIENTED_EDGE ( 'NONE', *, *, #187, .F. ) ;
#11 = LOCAL_TIME ( 11, 29, 46.00000000000000000, #89 ) ;
#12 = APPROVAL_PERSON_ORGANIZATION ( #39, #210, #128 ) ;
#13 = APPROVAL_DATE_TIME ( #58, #186 ) ;
#14 = DESIGN_CONTEXT ( 'detailed design', #44, 'design' ) ;
#15 = EDGE_CURVE ( 'NONE', #182, #22, #303, .T. ) ;
#16 = DIRECTION ( 'NONE',  ( 0.000000000000000000, 0.000000000000000000, 1.000000000000000000 ) ) ;
#17 = CARTESIAN_POINT ( 'NONE',  ( 0.000000000000000000, 0.000000000000000000, 0.000000000000000000 ) ) ;
#18 = AXIS2_PLACEMENT_3D ( 'NONE', #90, #196, #54 ) ;
#19 = LINE ( 'NONE', #67, #149 ) ;
#20 = DIRECTION ( 'NONE',  ( 1.000000000000000000, 0.000000000000000000, 0.000000000000000000 ) ) ;
#21 = EDGE_CURVE ( 'NONE', #22, #88, #145, .T. ) ;
#22 = VERTEX_POINT ( 'NONE', #43 ) ;
#23 = DIRECTION ( 'NONE',  ( 0.000000000000000000, 0.000000000000000000, 1.000000000000000000 ) ) ;
#24 = FACE_OUTER_BOUND ( 'NONE', #266, .T. ) ;
#25 = CARTESIAN_POINT ( 'NONE',  ( 0.000000000000000000, 0.000000000000000000, 10.00000000000000000 ) ) ;
#26 = ORGANIZATION ( 'NEURÈENÝ', 'NEURÈENÝ', '' ) ;
#27 = DIRECTION ( 'NONE',  ( -0.000000000000000000, -0.000000000000000000, -1.000000000000000000 ) ) ;
#28 = DIRECTION ( 'NONE',  ( 1.000000000000000000, 0.000000000000000000, 0.000000000000000000 ) ) ;
#29 = CARTESIAN_POINT ( 'NONE',  ( 0.000000000000000000, 0.000000000000000000, 210.0000000000000284 ) ) ;
#30 = CYLINDRICAL_SURFACE ( 'NONE', #169, 16.00000000000000000 ) ;
#31 = CARTESIAN_POINT ( 'NONE',  ( 20.00000000000000000, 2.449293598294706513E-15, 10.00000000000000000 ) ) ;
#32 = PERSON_AND_ORGANIZATION ( #194, #26 ) ;
#33 = CALENDAR_DATE ( 2022, 7, 7 ) ;
#34 = EDGE_LOOP ( 'NONE', ( #256, #211 ) ) ;
#35 = PERSON_AND_ORGANIZATION ( #194, #26 ) ;
#36 = CALENDAR_DATE ( 2022, 7, 7 ) ;
#37 = AXIS2_PLACEMENT_3D ( 'NONE', #8, #267, #56 ) ;
#38 = TOROIDAL_SURFACE ( 'NONE', #206, 16.19999999999999929, 0.2000000000000000111 ) ;
#39 = PERSON_AND_ORGANIZATION ( #194, #26 ) ;
#40 = AXIS2_PLACEMENT_3D ( 'NONE', #85, #302, #20 ) ;
#41 = CIRCLE ( 'NONE', #277, 20.00000000000000000 ) ;
#42 = CC_DESIGN_SECURITY_CLASSIFICATION ( #201, ( #222 ) ) ;
#43 = CARTESIAN_POINT ( 'NONE',  ( 20.00000000000000000, 2.449293598294706513E-15, 0.000000000000000000 ) ) ;
#44 = APPLICATION_CONTEXT ( 'configuration controlled 3d designs of mechanical parts and assemblies' ) ;
#45 = AXIS2_PLACEMENT_3D ( 'NONE', #64, #50, #132 ) ;
#46 = ORIENTED_EDGE ( 'NONE', *, *, #173, .F. ) ;
#47 = ORIENTED_EDGE ( 'NONE', *, *, #250, .F. ) ;
#48 = DIRECTION ( 'NONE',  ( -0.000000000000000000, -0.000000000000000000, -1.000000000000000000 ) ) ;
#49 = ADVANCED_FACE ( 'NONE', ( #207 ), #134, .T. ) ;
#50 = DIRECTION ( 'NONE',  ( -0.000000000000000000, -0.000000000000000000, -1.000000000000000000 ) ) ;
#51 = CARTESIAN_POINT ( 'NONE',  ( 0.000000000000000000, 0.000000000000000000, 210.0000000000000284 ) ) ;
#52 = CARTESIAN_POINT ( 'NONE',  ( 0.000000000000000000, 0.000000000000000000, 10.00000000000000000 ) ) ;
#53 =( NAMED_UNIT ( * ) PLANE_ANGLE_UNIT ( ) SI_UNIT ( $, .RADIAN. ) );
#54 = DIRECTION ( 'NONE',  ( -1.000000000000000000, 1.224646799147353947E-16, 0.000000000000000000 ) ) ;
#55 = DIRECTION ( 'NONE',  ( 0.000000000000000000, 0.000000000000000000, 1.000000000000000000 ) ) ;
#56 = DIRECTION ( 'NONE',  ( 1.000000000000000000, 0.000000000000000000, 0.000000000000000000 ) ) ;
#57 = CARTESIAN_POINT ( 'NONE',  ( -16.00000000000000000, 0.000000000000000000, 210.0000000000000284 ) ) ;
#58 = DATE_AND_TIME ( #276, #247 ) ;
#59 = ORIENTED_EDGE ( 'NONE', *, *, #160, .F. ) ;
#60 = PERSON_AND_ORGANIZATION ( #194, #26 ) ;
#61 = VERTEX_POINT ( 'NONE', #226 ) ;
#62 = APPROVAL_STATUS ( 'not_yet_approved' ) ;
#63 =( GEOMETRIC_REPRESENTATION_CONTEXT ( 3 ) GLOBAL_UNCERTAINTY_ASSIGNED_CONTEXT ( ( #246 ) ) GLOBAL_UNIT_ASSIGNED_CONTEXT ( ( #96, #53, #293 ) ) REPRESENTATION_CONTEXT ( 'NONE', 'WORKASPACE' ) );
#64 = CARTESIAN_POINT ( 'NONE',  ( 0.000000000000000000, 0.000000000000000000, 10.00000000000000000 ) ) ;
#65 = CC_DESIGN_PERSON_AND_ORGANIZATION_ASSIGNMENT ( #35, #80, ( #201 ) ) ;
#66 = ORIENTED_EDGE ( 'NONE', *, *, #147, .T. ) ;
#67 = CARTESIAN_POINT ( 'NONE',  ( 16.00000000000000000, 1.959434878635765131E-15, 210.0000000000000284 ) ) ;
#68 = ADVANCED_FACE ( 'NONE', ( #305 ), #260, .F. ) ;
#69 = CARTESIAN_POINT ( 'NONE',  ( 0.000000000000000000, 0.000000000000000000, 10.00000000000000000 ) ) ;
#70 = EDGE_CURVE ( 'NONE', #286, #150, #19, .T. ) ;
#71 = DIRECTION ( 'NONE',  ( 0.000000000000000000, -1.000000000000000000, 0.000000000000000000 ) ) ;
#72 = DIRECTION ( 'NONE',  ( -0.000000000000000000, -0.000000000000000000, -1.000000000000000000 ) ) ;
#73 = DIRECTION ( 'NONE',  ( 1.000000000000000000, 0.000000000000000000, 0.000000000000000000 ) ) ;
#74 = CYLINDRICAL_SURFACE ( 'NONE', #278, 20.00000000000000000 ) ;
#75 = CIRCLE ( 'NONE', #183, 20.00000000000000000 ) ;
#76 = DIRECTION ( 'NONE',  ( 0.000000000000000000, 0.000000000000000000, 1.000000000000000000 ) ) ;
#77 = APPLICATION_PROTOCOL_DEFINITION ( 'international standard', 'config_control_design', 1994, #100 ) ;
#78 = ADVANCED_FACE ( 'NONE', ( #159, #135 ), #108, .T. ) ;
#79 = ORIENTED_EDGE ( 'NONE', *, *, #86, .F. ) ;
#80 = PERSON_AND_ORGANIZATION_ROLE ( 'classification_officer' ) ;
#81 = CIRCLE ( 'NONE', #82, 20.00000000000000000 ) ;
#82 = AXIS2_PLACEMENT_3D ( 'NONE', #52, #234, #94 ) ;
#83 = VERTEX_POINT ( 'NONE', #307 ) ;
#84 = DIRECTION ( 'NONE',  ( 1.000000000000000000, 0.000000000000000000, 0.000000000000000000 ) ) ;
#85 = CARTESIAN_POINT ( 'NONE',  ( 0.000000000000000000, 0.000000000000000000, 10.19999999999998685 ) ) ;
#86 = EDGE_CURVE ( 'NONE', #61, #88, #136, .T. ) ;
#87 = VERTEX_POINT ( 'NONE', #57 ) ;
#88 = VERTEX_POINT ( 'NONE', #217 ) ;
#89 = COORDINATED_UNIVERSAL_TIME_OFFSET ( 1, 0, .AHEAD. ) ;
#90 = CARTESIAN_POINT ( 'NONE',  ( -16.19999999999999929, 1.983927814618711846E-15, 10.19999999999998685 ) ) ;
#91 = CC_DESIGN_PERSON_AND_ORGANIZATION_ASSIGNMENT ( #294, #268, ( #177 ) ) ;
#92 = PLANE ( 'NONE',  #98 ) ;
#93 = DIRECTION ( 'NONE',  ( -1.000000000000000000, 0.000000000000000000, 0.000000000000000000 ) ) ;
#94 = DIRECTION ( 'NONE',  ( 1.000000000000000000, 0.000000000000000000, 0.000000000000000000 ) ) ;
#95 = VECTOR ( 'NONE', #146, 1000.000000000000000 ) ;
#96 =( LENGTH_UNIT ( ) NAMED_UNIT ( * ) SI_UNIT ( .MILLI., .METRE. ) );
#97 = DATE_AND_TIME ( #165, #11 ) ;
#98 = AXIS2_PLACEMENT_3D ( 'NONE', #195, #140, #239 ) ;
#99 = EDGE_LOOP ( 'NONE', ( #199, #185 ) ) ;
#100 = APPLICATION_CONTEXT ( 'configuration controlled 3d designs of mechanical parts and assemblies' ) ;
#101 = ORIENTED_EDGE ( 'NONE', *, *, #208, .F. ) ;
#102 = ADVANCED_BREP_SHAPE_REPRESENTATION ( 'c175', ( #158, #236 ), #63 ) ;
#103 = DIRECTION ( 'NONE',  ( 1.000000000000000000, 0.000000000000000000, -0.000000000000000000 ) ) ;
#104 = CC_DESIGN_PERSON_AND_ORGANIZATION_ASSIGNMENT ( #244, #298, ( #222 ) ) ;
#105 = ORIENTED_EDGE ( 'NONE', *, *, #21, .F. ) ;
#106 = ORIENTED_EDGE ( 'NONE', *, *, #151, .F. ) ;
#107 = EDGE_CURVE ( 'NONE', #87, #286, #192, .T. ) ;
#108 = PLANE ( 'NONE',  #269 ) ;
#109 = CC_DESIGN_DATE_AND_TIME_ASSIGNMENT ( #178, #274, ( #201 ) ) ;
#110 = DIRECTION ( 'NONE',  ( -0.000000000000000000, -0.000000000000000000, -1.000000000000000000 ) ) ;
#111 = CIRCLE ( 'NONE', #296, 16.00000000000000000 ) ;
#112 = CARTESIAN_POINT ( 'NONE',  ( 16.00000000000000000, 1.959434878635765131E-15, 10.19999999999998685 ) ) ;
#113 = LOCAL_TIME ( 11, 29, 46.00000000000000000, #180 ) ;
#114 = DIRECTION ( 'NONE',  ( -0.000000000000000000, -0.000000000000000000, -1.000000000000000000 ) ) ;
#115 = CARTESIAN_POINT ( 'NONE',  ( 0.000000000000000000, 0.000000000000000000, 210.0000000000000284 ) ) ;
#116 = CIRCLE ( 'NONE', #299, 0.2000000000000005107 ) ;
#117 = CC_DESIGN_PERSON_AND_ORGANIZATION_ASSIGNMENT ( #60, #248, ( #222 ) ) ;
#118 = CARTESIAN_POINT ( 'NONE',  ( 0.000000000000000000, 0.000000000000000000, 210.0000000000000284 ) ) ;
#119 = DIRECTION ( 'NONE',  ( 0.000000000000000000, 0.000000000000000000, -1.000000000000000000 ) ) ;
#120 = COORDINATED_UNIVERSAL_TIME_OFFSET ( 1, 0, .AHEAD. ) ;
#121 = LINE ( 'NONE', #270, #95 ) ;
#122 = FACE_OUTER_BOUND ( 'NONE', #148, .T. ) ;
#123 = CC_DESIGN_APPROVAL ( #204, ( #177 ) ) ;
#124 = DATE_AND_TIME ( #36, #113 ) ;
#125 = SECURITY_CLASSIFICATION_LEVEL ( 'unclassified' ) ;
#126 = APPROVAL_ROLE ( '' ) ;
#127 = CC_DESIGN_DATE_AND_TIME_ASSIGNMENT ( #233, #200, ( #177 ) ) ;
#128 = APPROVAL_ROLE ( '' ) ;
#129 = CIRCLE ( 'NONE', #18, 0.1999999999999987899 ) ;
#130 = CC_DESIGN_APPROVAL ( #210, ( #222 ) ) ;
#131 = PRODUCT_RELATED_PRODUCT_CATEGORY ( 'detail', '', ( #272 ) ) ;
#132 = DIRECTION ( 'NONE',  ( -1.000000000000000000, 0.000000000000000000, 0.000000000000000000 ) ) ;
#133 = ORIENTED_EDGE ( 'NONE', *, *, #15, .F. ) ;
#134 = CYLINDRICAL_SURFACE ( 'NONE', #45, 20.00000000000000000 ) ;
#135 = FACE_OUTER_BOUND ( 'NONE', #254, .T. ) ;
#136 = LINE ( 'NONE', #190, #301 ) ;
#137 = DIRECTION ( 'NONE',  ( 0.000000000000000000, 0.000000000000000000, 1.000000000000000000 ) ) ;
#138 = AXIS2_PLACEMENT_3D ( 'NONE', #216, #289, #3 ) ;
#139 = ADVANCED_FACE ( 'NONE', ( #24 ), #92, .F. ) ;
#140 = DIRECTION ( 'NONE',  ( 0.000000000000000000, 0.000000000000000000, 1.000000000000000000 ) ) ;
#141 = FACE_OUTER_BOUND ( 'NONE', #34, .T. ) ;
#142 = APPROVAL_PERSON_ORGANIZATION ( #295, #186, #126 ) ;
#143 = CARTESIAN_POINT ( 'NONE',  ( 0.000000000000000000, 0.000000000000000000, 0.000000000000000000 ) ) ;
#144 = PLANE ( 'NONE',  #227 ) ;
#145 = CIRCLE ( 'NONE', #154, 20.00000000000000000 ) ;
#146 = DIRECTION ( 'NONE',  ( -0.000000000000000000, -0.000000000000000000, -1.000000000000000000 ) ) ;
#147 = EDGE_CURVE ( 'NONE', #284, #150, #280, .T. ) ;
#148 = EDGE_LOOP ( 'NONE', ( #133, #229, #188, #283 ) ) ;
#149 = VECTOR ( 'NONE', #110, 1000.000000000000000 ) ;
#150 = VERTEX_POINT ( 'NONE', #112 ) ;
#151 = EDGE_CURVE ( 'NONE', #182, #61, #81, .T. ) ;
#152 = APPROVAL_STATUS ( 'not_yet_approved' ) ;
#153 = ORIENTED_EDGE ( 'NONE', *, *, #223, .F. ) ;
#154 = AXIS2_PLACEMENT_3D ( 'NONE', #17, #285, #84 ) ;
#155 = EDGE_LOOP ( 'NONE', ( #106, #282, #205, #79 ) ) ;
#156 = ORIENTED_EDGE ( 'NONE', *, *, #187, .T. ) ;
#157 = ORIENTED_EDGE ( 'NONE', *, *, #219, .F. ) ;
#158 = MANIFOLD_SOLID_BREP ( 'Zaoblit1', #230 ) ;
#159 = FACE_BOUND ( 'NONE', #99, .T. ) ;
#160 = EDGE_CURVE ( 'NONE', #150, #83, #116, .T. ) ;
#161 = CC_DESIGN_APPROVAL ( #186, ( #201 ) ) ;
#162 = ORIENTED_EDGE ( 'NONE', *, *, #147, .F. ) ;
#163 = DIRECTION ( 'NONE',  ( 1.000000000000000000, 0.000000000000000000, 0.000000000000000000 ) ) ;
#164 = DIRECTION ( 'NONE',  ( 0.000000000000000000, 0.000000000000000000, 1.000000000000000000 ) ) ;
#165 = CALENDAR_DATE ( 2022, 7, 7 ) ;
#166 = CARTESIAN_POINT ( 'NONE',  ( 16.19999999999999929, 0.000000000000000000, 10.19999999999998685 ) ) ;
#167 = DIRECTION ( 'NONE',  ( 1.000000000000000000, 0.000000000000000000, 0.000000000000000000 ) ) ;
#168 = CIRCLE ( 'NONE', #37, 16.19999999999999929 ) ;
#169 = AXIS2_PLACEMENT_3D ( 'NONE', #118, #72, #265 ) ;
#170 = DIRECTION ( 'NONE',  ( -1.000000000000000000, 0.000000000000000000, 0.000000000000000000 ) ) ;
#171 = APPROVAL_DATE_TIME ( #97, #204 ) ;
#172 = DIRECTION ( 'NONE',  ( 1.000000000000000000, 0.000000000000000000, -0.000000000000000000 ) ) ;
#173 = EDGE_CURVE ( 'NONE', #150, #284, #281, .T. ) ;
#174 = CARTESIAN_POINT ( 'NONE',  ( -16.00000000000000000, 0.000000000000000000, 10.19999999999998685 ) ) ;
#175 = CIRCLE ( 'NONE', #213, 16.19999999999999929 ) ;
#176 = APPROVAL_DATE_TIME ( #124, #210 ) ;
#177 = PRODUCT_DEFINITION ( 'NEZNÁMÝ', '', #222, #14 ) ;
#178 = DATE_AND_TIME ( #33, #300 ) ;
#179 = AXIS2_PLACEMENT_3D ( 'NONE', #290, #237, #73 ) ;
#180 = COORDINATED_UNIVERSAL_TIME_OFFSET ( 1, 0, .AHEAD. ) ;
#181 = ADVANCED_FACE ( 'NONE', ( #241 ), #292, .T. ) ;
#182 = VERTEX_POINT ( 'NONE', #31 ) ;
#183 = AXIS2_PLACEMENT_3D ( 'NONE', #287, #23, #197 ) ;
#184 = EDGE_CURVE ( 'NONE', #273, #83, #168, .T. ) ;
#185 = ORIENTED_EDGE ( 'NONE', *, *, #184, .T. ) ;
#186 = APPROVAL ( #62, 'NEURÈENÝ' ) ;
#187 = EDGE_CURVE ( 'NONE', #284, #273, #129, .T. ) ;
#188 = ORIENTED_EDGE ( 'NONE', *, *, #86, .T. ) ;
#189 = ORIENTED_EDGE ( 'NONE', *, *, #275, .T. ) ;
#190 = CARTESIAN_POINT ( 'NONE',  ( -20.00000000000000000, 0.000000000000000000, 10.00000000000000000 ) ) ;
#191 = MECHANICAL_CONTEXT ( 'NONE', #100, 'mechanical' ) ;
#192 = CIRCLE ( 'NONE', #231, 16.00000000000000000 ) ;
#193 = DIRECTION ( 'NONE',  ( -0.000000000000000000, -0.000000000000000000, -1.000000000000000000 ) ) ;
#194 = PERSON ( 'NEURÈENÝ', 'NEURÈENÝ', 'NEURÈENÝ', ('NEURÈENÝ'), ('NEURÈENÝ'), ('NEURÈENÝ') ) ;
#195 = CARTESIAN_POINT ( 'NONE',  ( 0.000000000000000000, 0.000000000000000000, 0.000000000000000000 ) ) ;
#196 = DIRECTION ( 'NONE',  ( 1.224646799147353207E-16, 1.000000000000000000, -0.000000000000000000 ) ) ;
#197 = DIRECTION ( 'NONE',  ( 1.000000000000000000, 0.000000000000000000, 0.000000000000000000 ) ) ;
#198 = ORIENTED_EDGE ( 'NONE', *, *, #107, .F. ) ;
#199 = ORIENTED_EDGE ( 'NONE', *, *, #223, .T. ) ;
#200 = DATE_TIME_ROLE ( 'creation_date' ) ;
#201 = SECURITY_CLASSIFICATION ( '', '', #125 ) ;
#202 = ADVANCED_FACE ( 'NONE', ( #141 ), #144, .T. ) ;
#203 = ORIENTED_EDGE ( 'NONE', *, *, #208, .T. ) ;
#204 = APPROVAL ( #291, 'NEURÈENÝ' ) ;
#205 = ORIENTED_EDGE ( 'NONE', *, *, #21, .T. ) ;
#206 = AXIS2_PLACEMENT_3D ( 'NONE', #271, #137, #28 ) ;
#207 = FACE_OUTER_BOUND ( 'NONE', #155, .T. ) ;
#208 = EDGE_CURVE ( 'NONE', #87, #284, #121, .T. ) ;
#209 = CARTESIAN_POINT ( 'NONE',  ( 0.000000000000000000, 0.000000000000000000, 10.00000000000000000 ) ) ;
#210 = APPROVAL ( #152, 'NEURÈENÝ' ) ;
#211 = ORIENTED_EDGE ( 'NONE', *, *, #250, .T. ) ;
#212 = APPLICATION_PROTOCOL_DEFINITION ( 'international standard', 'config_control_design', 1994, #44 ) ;
#213 = AXIS2_PLACEMENT_3D ( 'NONE', #69, #193, #163 ) ;
#214 = CARTESIAN_POINT ( 'NONE',  ( 0.000000000000000000, 0.000000000000000000, 0.000000000000000000 ) ) ;
#215 = DIRECTION ( 'NONE',  ( 0.000000000000000000, 0.000000000000000000, 1.000000000000000000 ) ) ;
#216 = CARTESIAN_POINT ( 'NONE',  ( 0.000000000000000000, 0.000000000000000000, 10.19999999999998685 ) ) ;
#217 = CARTESIAN_POINT ( 'NONE',  ( -20.00000000000000000, 0.000000000000000000, 0.000000000000000000 ) ) ;
#218 = DIRECTION ( 'NONE',  ( 1.000000000000000000, 0.000000000000000000, 0.000000000000000000 ) ) ;
#219 = EDGE_CURVE ( 'NONE', #88, #22, #41, .T. ) ;
#220 = COORDINATED_UNIVERSAL_TIME_OFFSET ( 1, 0, .AHEAD. ) ;
#221 = SHAPE_DEFINITION_REPRESENTATION ( #251, #102 ) ;
#222 = PRODUCT_DEFINITION_FORMATION_WITH_SPECIFIED_SOURCE ( 'LIBOVOLNÝ', '', #272, .NOT_KNOWN. ) ;
#223 = EDGE_CURVE ( 'NONE', #83, #273, #175, .T. ) ;
#224 = ORIENTED_EDGE ( 'NONE', *, *, #160, .T. ) ;
#225 = EDGE_LOOP ( 'NONE', ( #297, #198, #203, #66 ) ) ;
#226 = CARTESIAN_POINT ( 'NONE',  ( -20.00000000000000000, 0.000000000000000000, 10.00000000000000000 ) ) ;
#227 = AXIS2_PLACEMENT_3D ( 'NONE', #29, #76, #172 ) ;
#228 = APPROVAL_PERSON_ORGANIZATION ( #240, #204, #2 ) ;
#229 = ORIENTED_EDGE ( 'NONE', *, *, #275, .F. ) ;
#230 = CLOSED_SHELL ( 'NONE', ( #68, #252, #49, #306, #78, #139, #181, #202, #263 ) ) ;
#231 = AXIS2_PLACEMENT_3D ( 'NONE', #115, #215, #5 ) ;
#232 = EDGE_LOOP ( 'NONE', ( #162, #156, #153, #59 ) ) ;
#233 = DATE_AND_TIME ( #259, #304 ) ;
#234 = DIRECTION ( 'NONE',  ( 0.000000000000000000, 0.000000000000000000, 1.000000000000000000 ) ) ;
#235 = CARTESIAN_POINT ( 'NONE',  ( -16.19999999999999929, 1.983927814618711846E-15, 9.999999999999992895 ) ) ;
#236 = AXIS2_PLACEMENT_3D ( 'NONE', #143, #55, #167 ) ;
#237 = DIRECTION ( 'NONE',  ( 0.000000000000000000, 0.000000000000000000, 1.000000000000000000 ) ) ;
#238 = DIRECTION ( 'NONE',  ( 0.000000000000000000, 0.000000000000000000, 1.000000000000000000 ) ) ;
#239 = DIRECTION ( 'NONE',  ( 1.000000000000000000, 0.000000000000000000, -0.000000000000000000 ) ) ;
#240 = PERSON_AND_ORGANIZATION ( #194, #26 ) ;
#241 = FACE_OUTER_BOUND ( 'NONE', #225, .T. ) ;
#242 = EDGE_LOOP ( 'NONE', ( #10, #46, #224, #243 ) ) ;
#243 = ORIENTED_EDGE ( 'NONE', *, *, #184, .F. ) ;
#244 = PERSON_AND_ORGANIZATION ( #194, #26 ) ;
#245 = COORDINATED_UNIVERSAL_TIME_OFFSET ( 1, 0, .AHEAD. ) ;
#246 = UNCERTAINTY_MEASURE_WITH_UNIT (LENGTH_MEASURE( 1.000000000000000082E-05 ), #96, 'distance_accuracy_value', 'NONE');
#247 = LOCAL_TIME ( 11, 29, 46.00000000000000000, #220 ) ;
#248 = PERSON_AND_ORGANIZATION_ROLE ( 'creator' ) ;
#249 = EDGE_LOOP ( 'NONE', ( #47, #1, #255, #101 ) ) ;
#250 = EDGE_CURVE ( 'NONE', #286, #87, #111, .T. ) ;
#251 = PRODUCT_DEFINITION_SHAPE ( 'NONE', 'NONE',  #177 ) ;
#252 = ADVANCED_FACE ( 'NONE', ( #4 ), #30, .T. ) ;
#253 = CARTESIAN_POINT ( 'NONE',  ( 20.00000000000000000, 2.449293598294706513E-15, 10.00000000000000000 ) ) ;
#254 = EDGE_LOOP ( 'NONE', ( #189, #258 ) ) ;
#255 = ORIENTED_EDGE ( 'NONE', *, *, #173, .T. ) ;
#256 = ORIENTED_EDGE ( 'NONE', *, *, #107, .T. ) ;
#257 = AXIS2_PLACEMENT_3D ( 'NONE', #6, #264, #170 ) ;
#258 = ORIENTED_EDGE ( 'NONE', *, *, #151, .T. ) ;
#259 = CALENDAR_DATE ( 2022, 7, 7 ) ;
#260 = TOROIDAL_SURFACE ( 'NONE', #40, 16.19999999999999929, 0.2000000000000000111 ) ;
#261 = DIRECTION ( 'NONE',  ( 1.000000000000000000, 0.000000000000000000, 0.000000000000000000 ) ) ;
#262 = CARTESIAN_POINT ( 'NONE',  ( 16.00000000000000000, 1.959434878635765131E-15, 210.0000000000000284 ) ) ;
#263 = ADVANCED_FACE ( 'NONE', ( #7 ), #38, .F. ) ;
#264 = DIRECTION ( 'NONE',  ( -0.000000000000000000, -0.000000000000000000, -1.000000000000000000 ) ) ;
#265 = DIRECTION ( 'NONE',  ( -1.000000000000000000, 0.000000000000000000, 0.000000000000000000 ) ) ;
#266 = EDGE_LOOP ( 'NONE', ( #157, #105 ) ) ;
#267 = DIRECTION ( 'NONE',  ( -0.000000000000000000, -0.000000000000000000, -1.000000000000000000 ) ) ;
#268 = PERSON_AND_ORGANIZATION_ROLE ( 'creator' ) ;
#269 = AXIS2_PLACEMENT_3D ( 'NONE', #209, #16, #103 ) ;
#270 = CARTESIAN_POINT ( 'NONE',  ( -16.00000000000000000, 0.000000000000000000, 210.0000000000000284 ) ) ;
#271 = CARTESIAN_POINT ( 'NONE',  ( 0.000000000000000000, 0.000000000000000000, 10.19999999999998685 ) ) ;
#272 = PRODUCT ( 'c175', 'c175', '', ( #191 ) ) ;
#273 = VERTEX_POINT ( 'NONE', #235 ) ;
#274 = DATE_TIME_ROLE ( 'classification_date' ) ;
#275 = EDGE_CURVE ( 'NONE', #61, #182, #75, .T. ) ;
#276 = CALENDAR_DATE ( 2022, 7, 7 ) ;
#277 = AXIS2_PLACEMENT_3D ( 'NONE', #214, #164, #261 ) ;
#278 = AXIS2_PLACEMENT_3D ( 'NONE', #25, #114, #93 ) ;
#279 = VECTOR ( 'NONE', #48, 1000.000000000000000 ) ;
#280 = CIRCLE ( 'NONE', #179, 16.00000000000000000 ) ;
#281 = CIRCLE ( 'NONE', #138, 16.00000000000000000 ) ;
#282 = ORIENTED_EDGE ( 'NONE', *, *, #15, .T. ) ;
#283 = ORIENTED_EDGE ( 'NONE', *, *, #219, .T. ) ;
#284 = VERTEX_POINT ( 'NONE', #174 ) ;
#285 = DIRECTION ( 'NONE',  ( 0.000000000000000000, 0.000000000000000000, 1.000000000000000000 ) ) ;
#286 = VERTEX_POINT ( 'NONE', #262 ) ;
#287 = CARTESIAN_POINT ( 'NONE',  ( 0.000000000000000000, 0.000000000000000000, 10.00000000000000000 ) ) ;
#288 = CC_DESIGN_PERSON_AND_ORGANIZATION_ASSIGNMENT ( #32, #9, ( #272 ) ) ;
#289 = DIRECTION ( 'NONE',  ( 0.000000000000000000, 0.000000000000000000, 1.000000000000000000 ) ) ;
#290 = CARTESIAN_POINT ( 'NONE',  ( 0.000000000000000000, 0.000000000000000000, 10.19999999999998685 ) ) ;
#291 = APPROVAL_STATUS ( 'not_yet_approved' ) ;
#292 = CYLINDRICAL_SURFACE ( 'NONE', #257, 16.00000000000000000 ) ;
#293 =( NAMED_UNIT ( * ) SI_UNIT ( $, .STERADIAN. ) SOLID_ANGLE_UNIT ( ) );
#294 = PERSON_AND_ORGANIZATION ( #194, #26 ) ;
#295 = PERSON_AND_ORGANIZATION ( #194, #26 ) ;
#296 = AXIS2_PLACEMENT_3D ( 'NONE', #51, #238, #218 ) ;
#297 = ORIENTED_EDGE ( 'NONE', *, *, #70, .F. ) ;
#298 = PERSON_AND_ORGANIZATION_ROLE ( 'design_supplier' ) ;
#299 = AXIS2_PLACEMENT_3D ( 'NONE', #166, #71, #119 ) ;
#300 = LOCAL_TIME ( 11, 29, 46.00000000000000000, #245 ) ;
#301 = VECTOR ( 'NONE', #27, 1000.000000000000000 ) ;
#302 = DIRECTION ( 'NONE',  ( 0.000000000000000000, 0.000000000000000000, 1.000000000000000000 ) ) ;
#303 = LINE ( 'NONE', #253, #279 ) ;
#304 = LOCAL_TIME ( 11, 29, 46.00000000000000000, #120 ) ;
#305 = FACE_OUTER_BOUND ( 'NONE', #232, .T. ) ;
#306 = ADVANCED_FACE ( 'NONE', ( #122 ), #74, .T. ) ;
#307 = CARTESIAN_POINT ( 'NONE',  ( 16.19999999999999929, 0.000000000000000000, 9.999999999999992895 ) ) ;
ENDSEC;
END-ISO-10303-21;
