ISO-10303-21;
HEADER;
FILE_DESCRIPTION (( 'STEP AP203' ),
    '1' );
FILE_NAME ('6df8.STEP',
    '2022-07-07T10:31:04',
    ( '' ),
    ( '' ),
    'SwSTEP 2.0',
    'SolidWorks 2019',
    '' );
FILE_SCHEMA (( 'CONFIG_CONTROL_DESIGN' ));
ENDSEC;

DATA;
#1 = VECTOR ( 'NONE', #90, 1000.000000000000000 ) ;
#2 = AXIS2_PLACEMENT_3D ( 'NONE', #107, #250, #220 ) ;
#3 = DIRECTION ( 'NONE',  ( 0.000000000000000000, 0.000000000000000000, 1.000000000000000000 ) ) ;
#4 = EDGE_LOOP ( 'NONE', ( #21, #273 ) ) ;
#5 = AXIS2_PLACEMENT_3D ( 'NONE', #181, #65, #43 ) ;
#6 = ORIENTED_EDGE ( 'NONE', *, *, #16, .T. ) ;
#7 = APPROVAL ( #274, 'NEURÈENÝ' ) ;
#8 = VERTEX_POINT ( 'NONE', #73 ) ;
#9 = EDGE_CURVE ( 'NONE', #88, #97, #289, .T. ) ;
#10 = DIRECTION ( 'NONE',  ( 1.000000000000000000, 0.000000000000000000, 0.000000000000000000 ) ) ;
#11 = FACE_OUTER_BOUND ( 'NONE', #186, .T. ) ;
#12 = CARTESIAN_POINT ( 'NONE',  ( 0.000000000000000000, 0.000000000000000000, 3.000000000000000000 ) ) ;
#13 = EDGE_LOOP ( 'NONE', ( #33, #264, #142, #23 ) ) ;
#14 = FACE_OUTER_BOUND ( 'NONE', #192, .T. ) ;
#15 = DATE_TIME_ROLE ( 'creation_date' ) ;
#16 = EDGE_CURVE ( 'NONE', #153, #8, #282, .T. ) ;
#17 = PERSON_AND_ORGANIZATION_ROLE ( 'design_owner' ) ;
#18 = LOCAL_TIME ( 12, 31, 4.000000000000000000, #254 ) ;
#19 = CALENDAR_DATE ( 2022, 7, 7 ) ;
#20 = AXIS2_PLACEMENT_3D ( 'NONE', #188, #94, #76 ) ;
#21 = ORIENTED_EDGE ( 'NONE', *, *, #182, .T. ) ;
#22 = CARTESIAN_POINT ( 'NONE',  ( 0.000000000000000000, 0.000000000000000000, 3.000000000000000000 ) ) ;
#23 = ORIENTED_EDGE ( 'NONE', *, *, #233, .F. ) ;
#24 = CARTESIAN_POINT ( 'NONE',  ( 0.000000000000000000, 0.000000000000000000, 253.0000000000000000 ) ) ;
#25 = AXIS2_PLACEMENT_3D ( 'NONE', #247, #86, #198 ) ;
#26 = TOROIDAL_SURFACE ( 'NONE', #285, 1.700000000000000400, 0.2000000000000000111 ) ;
#27 = ORIENTED_EDGE ( 'NONE', *, *, #87, .T. ) ;
#28 = ORIENTED_EDGE ( 'NONE', *, *, #30, .T. ) ;
#29 = ADVANCED_FACE ( 'NONE', ( #307, #257 ), #112, .T. ) ;
#30 = EDGE_CURVE ( 'NONE', #97, #88, #150, .T. ) ;
#31 = CIRCLE ( 'NONE', #2, 1.700000000000000400 ) ;
#32 = ORIENTED_EDGE ( 'NONE', *, *, #9, .F. ) ;
#33 = ORIENTED_EDGE ( 'NONE', *, *, #87, .F. ) ;
#34 = DIRECTION ( 'NONE',  ( 1.000000000000000000, 0.000000000000000000, 0.000000000000000000 ) ) ;
#35 = CARTESIAN_POINT ( 'NONE',  ( 1.500000000000000222, 1.836970198721030181E-16, 253.0000000000000000 ) ) ;
#36 = DATE_TIME_ROLE ( 'classification_date' ) ;
#37 = CARTESIAN_POINT ( 'NONE',  ( -1.700000000000000400, 2.081899558550500773E-16, 3.000000000000004441 ) ) ;
#38 = VERTEX_POINT ( 'NONE', #209 ) ;
#39 = CIRCLE ( 'NONE', #212, 3.000000000000000444 ) ;
#40 = AXIS2_PLACEMENT_3D ( 'NONE', #24, #52, #75 ) ;
#41 = PERSON_AND_ORGANIZATION ( #105, #54 ) ;
#42 = ADVANCED_FACE ( 'NONE', ( #203 ), #176, .T. ) ;
#43 = DIRECTION ( 'NONE',  ( 1.000000000000000000, 0.000000000000000000, 0.000000000000000000 ) ) ;
#44 = EDGE_LOOP ( 'NONE', ( #232, #263, #28, #298 ) ) ;
#45 = CC_DESIGN_APPROVAL ( #234, ( #252 ) ) ;
#46 = CIRCLE ( 'NONE', #189, 1.500000000000000222 ) ;
#47 = DIRECTION ( 'NONE',  ( -1.000000000000000000, 0.000000000000000000, 0.000000000000000000 ) ) ;
#48 = APPROVAL_PERSON_ORGANIZATION ( #71, #7, #202 ) ;
#49 = CARTESIAN_POINT ( 'NONE',  ( -1.500000000000000222, 0.000000000000000000, 253.0000000000000000 ) ) ;
#50 = DIRECTION ( 'NONE',  ( 1.000000000000000000, 0.000000000000000000, 0.000000000000000000 ) ) ;
#51 = DIRECTION ( 'NONE',  ( 1.000000000000000000, 0.000000000000000000, 0.000000000000000000 ) ) ;
#52 = DIRECTION ( 'NONE',  ( -0.000000000000000000, -0.000000000000000000, -1.000000000000000000 ) ) ;
#53 = TOROIDAL_SURFACE ( 'NONE', #238, 1.700000000000000400, 0.2000000000000000111 ) ;
#54 = ORGANIZATION ( 'NEURÈENÝ', 'NEURÈENÝ', '' ) ;
#55 = EDGE_LOOP ( 'NONE', ( #196, #217, #6, #27 ) ) ;
#56 = DIRECTION ( 'NONE',  ( 1.000000000000000000, 0.000000000000000000, -0.000000000000000000 ) ) ;
#57 = CARTESIAN_POINT ( 'NONE',  ( 0.000000000000000000, 0.000000000000000000, 3.200000000000008171 ) ) ;
#58 = APPLICATION_CONTEXT ( 'configuration controlled 3d designs of mechanical parts and assemblies' ) ;
#59 = DIRECTION ( 'NONE',  ( 1.000000000000000000, 0.000000000000000000, 0.000000000000000000 ) ) ;
#60 = SECURITY_CLASSIFICATION ( '', '', #302 ) ;
#61 = PERSON_AND_ORGANIZATION_ROLE ( 'classification_officer' ) ;
#62 = DIRECTION ( 'NONE',  ( 0.000000000000000000, 0.000000000000000000, 1.000000000000000000 ) ) ;
#63 = EDGE_LOOP ( 'NONE', ( #101, #134, #178, #291 ) ) ;
#64 = EDGE_CURVE ( 'NONE', #82, #230, #69, .T. ) ;
#65 = DIRECTION ( 'NONE',  ( 0.000000000000000000, 0.000000000000000000, 1.000000000000000000 ) ) ;
#66 = DIRECTION ( 'NONE',  ( -0.000000000000000000, -0.000000000000000000, -1.000000000000000000 ) ) ;
#67 = EDGE_CURVE ( 'NONE', #38, #153, #46, .T. ) ;
#68 = PERSON_AND_ORGANIZATION ( #105, #54 ) ;
#69 = CIRCLE ( 'NONE', #144, 1.700000000000000400 ) ;
#70 = VECTOR ( 'NONE', #283, 1000.000000000000000 ) ;
#71 = PERSON_AND_ORGANIZATION ( #105, #54 ) ;
#72 = DATE_AND_TIME ( #151, #135 ) ;
#73 = CARTESIAN_POINT ( 'NONE',  ( -1.500000000000000222, 0.000000000000000000, 3.200000000000008171 ) ) ;
#74 = CLOSED_SHELL ( 'NONE', ( #79, #42, #158, #237, #29, #205, #280, #168, #160 ) ) ;
#75 = DIRECTION ( 'NONE',  ( -1.000000000000000000, 0.000000000000000000, 0.000000000000000000 ) ) ;
#76 = DIRECTION ( 'NONE',  ( 1.000000000000000000, 0.000000000000000000, -0.000000000000000000 ) ) ;
#77 = PRODUCT_DEFINITION ( 'NEZNÁMÝ', '', #252, #80 ) ;
#78 = DIRECTION ( 'NONE',  ( 0.000000000000000000, 0.000000000000000000, 1.000000000000000000 ) ) ;
#79 = ADVANCED_FACE ( 'NONE', ( #172 ), #53, .F. ) ;
#80 = DESIGN_CONTEXT ( 'detailed design', #81, 'design' ) ;
#81 = APPLICATION_CONTEXT ( 'configuration controlled 3d designs of mechanical parts and assemblies' ) ;
#82 = VERTEX_POINT ( 'NONE', #37 ) ;
#83 = AXIS2_PLACEMENT_3D ( 'NONE', #127, #245, #56 ) ;
#84 = DIRECTION ( 'NONE',  ( 0.000000000000000000, 0.000000000000000000, 1.000000000000000000 ) ) ;
#85 = CARTESIAN_POINT ( 'NONE',  ( 3.000000000000000444, 3.673940397442060361E-16, 3.000000000000000000 ) ) ;
#86 = DIRECTION ( 'NONE',  ( -0.000000000000000000, -0.000000000000000000, -1.000000000000000000 ) ) ;
#87 = EDGE_CURVE ( 'NONE', #8, #290, #226, .T. ) ;
#88 = VERTEX_POINT ( 'NONE', #224 ) ;
#89 = APPROVAL_PERSON_ORGANIZATION ( #206, #234, #275 ) ;
#90 = DIRECTION ( 'NONE',  ( -0.000000000000000000, -0.000000000000000000, -1.000000000000000000 ) ) ;
#91 = DATE_AND_TIME ( #304, #175 ) ;
#92 = CALENDAR_DATE ( 2022, 7, 7 ) ;
#93 = SHAPE_DEFINITION_REPRESENTATION ( #281, #229 ) ;
#94 = DIRECTION ( 'NONE',  ( 0.000000000000000000, 0.000000000000000000, 1.000000000000000000 ) ) ;
#95 = PRODUCT ( '6df8', '6df8', '', ( #133 ) ) ;
#96 = LINE ( 'NONE', #190, #70 ) ;
#97 = VERTEX_POINT ( 'NONE', #296 ) ;
#98 =( NAMED_UNIT ( * ) PLANE_ANGLE_UNIT ( ) SI_UNIT ( $, .RADIAN. ) );
#99 = LOCAL_TIME ( 12, 31, 4.000000000000000000, #154 ) ;
#100 = ORIENTED_EDGE ( 'NONE', *, *, #233, .T. ) ;
#101 = ORIENTED_EDGE ( 'NONE', *, *, #180, .F. ) ;
#102 = EDGE_CURVE ( 'NONE', #38, #290, #267, .T. ) ;
#103 = CARTESIAN_POINT ( 'NONE',  ( 0.000000000000000000, 0.000000000000000000, 3.000000000000000000 ) ) ;
#104 = PLANE ( 'NONE',  #83 ) ;
#105 = PERSON ( 'NEURÈENÝ', 'NEURÈENÝ', 'NEURÈENÝ', ('NEURÈENÝ'), ('NEURÈENÝ'), ('NEURÈENÝ') ) ;
#106 = APPROVAL ( #157, 'NEURÈENÝ' ) ;
#107 = CARTESIAN_POINT ( 'NONE',  ( 0.000000000000000000, 0.000000000000000000, 3.000000000000000000 ) ) ;
#108 = PLANE ( 'NONE',  #293 ) ;
#109 = APPROVAL_STATUS ( 'not_yet_approved' ) ;
#110 = APPLICATION_PROTOCOL_DEFINITION ( 'international standard', 'config_control_design', 1994, #81 ) ;
#111 = APPROVAL_DATE_TIME ( #72, #234 ) ;
#112 = PLANE ( 'NONE',  #20 ) ;
#113 = CC_DESIGN_PERSON_AND_ORGANIZATION_ASSIGNMENT ( #68, #207, ( #252 ) ) ;
#114 = CYLINDRICAL_SURFACE ( 'NONE', #145, 3.000000000000000444 ) ;
#115 = ORIENTED_EDGE ( 'NONE', *, *, #222, .T. ) ;
#116 = DIRECTION ( 'NONE',  ( 1.000000000000000000, 0.000000000000000000, 0.000000000000000000 ) ) ;
#117 =( LENGTH_UNIT ( ) NAMED_UNIT ( * ) SI_UNIT ( .MILLI., .METRE. ) );
#118 = AXIS2_PLACEMENT_3D ( 'NONE', #200, #148, #34 ) ;
#119 = EDGE_CURVE ( 'NONE', #120, #241, #39, .T. ) ;
#120 = VERTEX_POINT ( 'NONE', #85 ) ;
#121 = CIRCLE ( 'NONE', #136, 1.500000000000000222 ) ;
#122 = ORIENTED_EDGE ( 'NONE', *, *, #30, .F. ) ;
#123 = DIRECTION ( 'NONE',  ( -0.000000000000000000, -0.000000000000000000, -1.000000000000000000 ) ) ;
#124 = EDGE_CURVE ( 'NONE', #290, #8, #271, .T. ) ;
#125 = FACE_OUTER_BOUND ( 'NONE', #44, .T. ) ;
#126 = CC_DESIGN_PERSON_AND_ORGANIZATION_ASSIGNMENT ( #132, #278, ( #77 ) ) ;
#127 = CARTESIAN_POINT ( 'NONE',  ( 0.000000000000000000, 0.000000000000000000, 253.0000000000000000 ) ) ;
#128 = COORDINATED_UNIVERSAL_TIME_OFFSET ( 1, 0, .AHEAD. ) ;
#129 = DIRECTION ( 'NONE',  ( 0.000000000000000000, 0.000000000000000000, 1.000000000000000000 ) ) ;
#130 = APPROVAL_DATE_TIME ( #276, #7 ) ;
#131 = LOCAL_TIME ( 12, 31, 4.000000000000000000, #253 ) ;
#132 = PERSON_AND_ORGANIZATION ( #105, #54 ) ;
#133 = MECHANICAL_CONTEXT ( 'NONE', #58, 'mechanical' ) ;
#134 = ORIENTED_EDGE ( 'NONE', *, *, #222, .F. ) ;
#135 = LOCAL_TIME ( 12, 31, 4.000000000000000000, #300 ) ;
#136 = AXIS2_PLACEMENT_3D ( 'NONE', #287, #3, #116 ) ;
#137 = CARTESIAN_POINT ( 'NONE',  ( 1.700000000000000400, 0.000000000000000000, 3.200000000000008171 ) ) ;
#138 = ORIENTED_EDGE ( 'NONE', *, *, #295, .T. ) ;
#139 = CARTESIAN_POINT ( 'NONE',  ( 1.700000000000000400, 0.000000000000000000, 3.000000000000004441 ) ) ;
#140 = DIRECTION ( 'NONE',  ( 1.000000000000000000, 0.000000000000000000, -0.000000000000000000 ) ) ;
#141 = APPLICATION_PROTOCOL_DEFINITION ( 'international standard', 'config_control_design', 1994, #58 ) ;
#142 = ORIENTED_EDGE ( 'NONE', *, *, #182, .F. ) ;
#143 = ORIENTED_EDGE ( 'NONE', *, *, #64, .F. ) ;
#144 = AXIS2_PLACEMENT_3D ( 'NONE', #301, #272, #59 ) ;
#145 = AXIS2_PLACEMENT_3D ( 'NONE', #231, #235, #47 ) ;
#146 = ORIENTED_EDGE ( 'NONE', *, *, #124, .T. ) ;
#147 = CARTESIAN_POINT ( 'NONE',  ( -1.500000000000000222, 0.000000000000000000, 253.0000000000000000 ) ) ;
#148 = DIRECTION ( 'NONE',  ( 0.000000000000000000, 0.000000000000000000, 1.000000000000000000 ) ) ;
#149 = CARTESIAN_POINT ( 'NONE',  ( 0.000000000000000000, 0.000000000000000000, 3.200000000000008171 ) ) ;
#150 = CIRCLE ( 'NONE', #277, 3.000000000000000444 ) ;
#151 = CALENDAR_DATE ( 2022, 7, 7 ) ;
#152 = CARTESIAN_POINT ( 'NONE',  ( 0.000000000000000000, 0.000000000000000000, 3.200000000000008171 ) ) ;
#153 = VERTEX_POINT ( 'NONE', #147 ) ;
#154 = COORDINATED_UNIVERSAL_TIME_OFFSET ( 1, 0, .AHEAD. ) ;
#155 = DIRECTION ( 'NONE',  ( 0.000000000000000000, 0.000000000000000000, 1.000000000000000000 ) ) ;
#156 = CIRCLE ( 'NONE', #197, 3.000000000000000444 ) ;
#157 = APPROVAL_STATUS ( 'not_yet_approved' ) ;
#158 = ADVANCED_FACE ( 'NONE', ( #125 ), #219, .T. ) ;
#159 = PERSON_AND_ORGANIZATION ( #105, #54 ) ;
#160 = ADVANCED_FACE ( 'NONE', ( #11 ), #26, .F. ) ;
#161 = DIRECTION ( 'NONE',  ( 0.000000000000000000, 0.000000000000000000, 1.000000000000000000 ) ) ;
#162 = DIRECTION ( 'NONE',  ( -0.000000000000000000, -0.000000000000000000, -1.000000000000000000 ) ) ;
#163 = CIRCLE ( 'NONE', #170, 0.2000000000000000944 ) ;
#164 = CARTESIAN_POINT ( 'NONE',  ( 1.500000000000000222, 1.836970198721030181E-16, 3.200000000000008171 ) ) ;
#165 = CARTESIAN_POINT ( 'NONE',  ( 0.000000000000000000, 0.000000000000000000, 0.000000000000000000 ) ) ;
#166 = FACE_OUTER_BOUND ( 'NONE', #55, .T. ) ;
#167 = ORIENTED_EDGE ( 'NONE', *, *, #67, .T. ) ;
#168 = ADVANCED_FACE ( 'NONE', ( #297 ), #104, .T. ) ;
#169 = EDGE_LOOP ( 'NONE', ( #115, #240 ) ) ;
#170 = AXIS2_PLACEMENT_3D ( 'NONE', #137, #259, #279 ) ;
#171 = DIRECTION ( 'NONE',  ( 1.000000000000000000, 0.000000000000000000, 0.000000000000000000 ) ) ;
#172 = FACE_OUTER_BOUND ( 'NONE', #13, .T. ) ;
#173 = MANIFOLD_SOLID_BREP ( 'Zaoblit1', #74 ) ;
#174 = LINE ( 'NONE', #269, #256 ) ;
#175 = LOCAL_TIME ( 12, 31, 4.000000000000000000, #128 ) ;
#176 = CYLINDRICAL_SURFACE ( 'NONE', #25, 1.500000000000000222 ) ;
#177 = AXIS2_PLACEMENT_3D ( 'NONE', #210, #255, #187 ) ;
#178 = ORIENTED_EDGE ( 'NONE', *, *, #265, .T. ) ;
#179 = DIRECTION ( 'NONE',  ( -1.000000000000000000, 0.000000000000000000, 0.000000000000000000 ) ) ;
#180 = EDGE_CURVE ( 'NONE', #120, #97, #174, .T. ) ;
#181 = CARTESIAN_POINT ( 'NONE',  ( 0.000000000000000000, 0.000000000000000000, 0.000000000000000000 ) ) ;
#182 = EDGE_CURVE ( 'NONE', #230, #82, #31, .T. ) ;
#183 = CALENDAR_DATE ( 2022, 7, 7 ) ;
#184 = CC_DESIGN_DATE_AND_TIME_ASSIGNMENT ( #91, #36, ( #60 ) ) ;
#185 = APPROVAL_DATE_TIME ( #223, #106 ) ;
#186 = EDGE_LOOP ( 'NONE', ( #214, #251, #100, #143 ) ) ;
#187 = DIRECTION ( 'NONE',  ( -1.000000000000000000, 1.224646799147353207E-16, 0.000000000000000000 ) ) ;
#188 = CARTESIAN_POINT ( 'NONE',  ( 0.000000000000000000, 0.000000000000000000, 3.000000000000000000 ) ) ;
#189 = AXIS2_PLACEMENT_3D ( 'NONE', #218, #246, #268 ) ;
#190 = CARTESIAN_POINT ( 'NONE',  ( -3.000000000000000444, 0.000000000000000000, 3.000000000000000000 ) ) ;
#191 = CARTESIAN_POINT ( 'NONE',  ( -3.000000000000000444, 0.000000000000000000, 3.000000000000000000 ) ) ;
#192 = EDGE_LOOP ( 'NONE', ( #32, #122 ) ) ;
#193 = CC_DESIGN_APPROVAL ( #106, ( #60 ) ) ;
#194 = CC_DESIGN_PERSON_AND_ORGANIZATION_ASSIGNMENT ( #303, #61, ( #60 ) ) ;
#195 = ORIENTED_EDGE ( 'NONE', *, *, #102, .T. ) ;
#196 = ORIENTED_EDGE ( 'NONE', *, *, #102, .F. ) ;
#197 = AXIS2_PLACEMENT_3D ( 'NONE', #22, #161, #50 ) ;
#198 = DIRECTION ( 'NONE',  ( -1.000000000000000000, 0.000000000000000000, 0.000000000000000000 ) ) ;
#199 = DIRECTION ( 'NONE',  ( 1.000000000000000000, 0.000000000000000000, 0.000000000000000000 ) ) ;
#200 = CARTESIAN_POINT ( 'NONE',  ( 0.000000000000000000, 0.000000000000000000, 3.200000000000008171 ) ) ;
#201 = ORIENTED_EDGE ( 'NONE', *, *, #67, .F. ) ;
#202 = APPROVAL_ROLE ( '' ) ;
#203 = FACE_OUTER_BOUND ( 'NONE', #221, .T. ) ;
#204 = PRODUCT_RELATED_PRODUCT_CATEGORY ( 'detail', '', ( #95 ) ) ;
#205 = ADVANCED_FACE ( 'NONE', ( #14 ), #108, .F. ) ;
#206 = PERSON_AND_ORGANIZATION ( #105, #54 ) ;
#207 = PERSON_AND_ORGANIZATION_ROLE ( 'creator' ) ;
#208 = PERSON_AND_ORGANIZATION_ROLE ( 'design_supplier' ) ;
#209 = CARTESIAN_POINT ( 'NONE',  ( 1.500000000000000222, 1.836970198721030181E-16, 253.0000000000000000 ) ) ;
#210 = CARTESIAN_POINT ( 'NONE',  ( -1.700000000000000400, 2.081899558550500773E-16, 3.200000000000008171 ) ) ;
#211 = DIRECTION ( 'NONE',  ( 0.000000000000000000, 0.000000000000000000, 1.000000000000000000 ) ) ;
#212 = AXIS2_PLACEMENT_3D ( 'NONE', #103, #62, #294 ) ;
#213 = CC_DESIGN_APPROVAL ( #7, ( #77 ) ) ;
#214 = ORIENTED_EDGE ( 'NONE', *, *, #261, .F. ) ;
#215 = APPROVAL_PERSON_ORGANIZATION ( #159, #106, #225 ) ;
#216 = AXIS2_PLACEMENT_3D ( 'NONE', #12, #66, #179 ) ;
#217 = ORIENTED_EDGE ( 'NONE', *, *, #295, .F. ) ;
#218 = CARTESIAN_POINT ( 'NONE',  ( 0.000000000000000000, 0.000000000000000000, 253.0000000000000000 ) ) ;
#219 = CYLINDRICAL_SURFACE ( 'NONE', #216, 3.000000000000000444 ) ;
#220 = DIRECTION ( 'NONE',  ( 1.000000000000000000, 0.000000000000000000, 0.000000000000000000 ) ) ;
#221 = EDGE_LOOP ( 'NONE', ( #201, #195, #146, #244 ) ) ;
#222 = EDGE_CURVE ( 'NONE', #241, #120, #156, .T. ) ;
#223 = DATE_AND_TIME ( #183, #18 ) ;
#224 = CARTESIAN_POINT ( 'NONE',  ( -3.000000000000000444, 0.000000000000000000, 0.000000000000000000 ) ) ;
#225 = APPROVAL_ROLE ( '' ) ;
#226 = CIRCLE ( 'NONE', #266, 1.500000000000000222 ) ;
#227 =( GEOMETRIC_REPRESENTATION_CONTEXT ( 3 ) GLOBAL_UNCERTAINTY_ASSIGNED_CONTEXT ( ( #292 ) ) GLOBAL_UNIT_ASSIGNED_CONTEXT ( ( #117, #98, #236 ) ) REPRESENTATION_CONTEXT ( 'NONE', 'WORKASPACE' ) );
#228 = DATE_AND_TIME ( #92, #131 ) ;
#229 = ADVANCED_BREP_SHAPE_REPRESENTATION ( '6df8', ( #173, #5 ), #227 ) ;
#230 = VERTEX_POINT ( 'NONE', #139 ) ;
#231 = CARTESIAN_POINT ( 'NONE',  ( 0.000000000000000000, 0.000000000000000000, 3.000000000000000000 ) ) ;
#232 = ORIENTED_EDGE ( 'NONE', *, *, #119, .F. ) ;
#233 = EDGE_CURVE ( 'NONE', #290, #230, #163, .T. ) ;
#234 = APPROVAL ( #109, 'NEURÈENÝ' ) ;
#235 = DIRECTION ( 'NONE',  ( -0.000000000000000000, -0.000000000000000000, -1.000000000000000000 ) ) ;
#236 =( NAMED_UNIT ( * ) SI_UNIT ( $, .STERADIAN. ) SOLID_ANGLE_UNIT ( ) );
#237 = ADVANCED_FACE ( 'NONE', ( #306 ), #114, .T. ) ;
#238 = AXIS2_PLACEMENT_3D ( 'NONE', #57, #84, #199 ) ;
#239 = CC_DESIGN_DATE_AND_TIME_ASSIGNMENT ( #228, #15, ( #77 ) ) ;
#240 = ORIENTED_EDGE ( 'NONE', *, *, #119, .T. ) ;
#241 = VERTEX_POINT ( 'NONE', #191 ) ;
#242 = EDGE_LOOP ( 'NONE', ( #138, #167 ) ) ;
#243 = AXIS2_PLACEMENT_3D ( 'NONE', #305, #211, #286 ) ;
#244 = ORIENTED_EDGE ( 'NONE', *, *, #16, .F. ) ;
#245 = DIRECTION ( 'NONE',  ( 0.000000000000000000, 0.000000000000000000, 1.000000000000000000 ) ) ;
#246 = DIRECTION ( 'NONE',  ( 0.000000000000000000, 0.000000000000000000, 1.000000000000000000 ) ) ;
#247 = CARTESIAN_POINT ( 'NONE',  ( 0.000000000000000000, 0.000000000000000000, 253.0000000000000000 ) ) ;
#248 = CC_DESIGN_PERSON_AND_ORGANIZATION_ASSIGNMENT ( #41, #17, ( #95 ) ) ;
#249 = PERSON_AND_ORGANIZATION ( #105, #54 ) ;
#250 = DIRECTION ( 'NONE',  ( -0.000000000000000000, -0.000000000000000000, -1.000000000000000000 ) ) ;
#251 = ORIENTED_EDGE ( 'NONE', *, *, #124, .F. ) ;
#252 = PRODUCT_DEFINITION_FORMATION_WITH_SPECIFIED_SOURCE ( 'LIBOVOLNÝ', '', #95, .NOT_KNOWN. ) ;
#253 = COORDINATED_UNIVERSAL_TIME_OFFSET ( 1, 0, .AHEAD. ) ;
#254 = COORDINATED_UNIVERSAL_TIME_OFFSET ( 1, 0, .AHEAD. ) ;
#255 = DIRECTION ( 'NONE',  ( 1.224646799147353207E-16, 1.000000000000000000, -0.000000000000000000 ) ) ;
#256 = VECTOR ( 'NONE', #123, 1000.000000000000000 ) ;
#257 = FACE_OUTER_BOUND ( 'NONE', #169, .T. ) ;
#258 = CC_DESIGN_PERSON_AND_ORGANIZATION_ASSIGNMENT ( #249, #208, ( #252 ) ) ;
#259 = DIRECTION ( 'NONE',  ( 0.000000000000000000, -1.000000000000000000, 0.000000000000000000 ) ) ;
#260 = DIRECTION ( 'NONE',  ( 0.000000000000000000, 0.000000000000000000, 1.000000000000000000 ) ) ;
#261 = EDGE_CURVE ( 'NONE', #8, #82, #299, .T. ) ;
#262 = CYLINDRICAL_SURFACE ( 'NONE', #40, 1.500000000000000222 ) ;
#263 = ORIENTED_EDGE ( 'NONE', *, *, #180, .T. ) ;
#264 = ORIENTED_EDGE ( 'NONE', *, *, #261, .T. ) ;
#265 = EDGE_CURVE ( 'NONE', #241, #88, #96, .T. ) ;
#266 = AXIS2_PLACEMENT_3D ( 'NONE', #149, #129, #10 ) ;
#267 = LINE ( 'NONE', #35, #1 ) ;
#268 = DIRECTION ( 'NONE',  ( 1.000000000000000000, 0.000000000000000000, 0.000000000000000000 ) ) ;
#269 = CARTESIAN_POINT ( 'NONE',  ( 3.000000000000000444, 3.673940397442060361E-16, 3.000000000000000000 ) ) ;
#270 = CC_DESIGN_SECURITY_CLASSIFICATION ( #60, ( #252 ) ) ;
#271 = CIRCLE ( 'NONE', #118, 1.500000000000000222 ) ;
#272 = DIRECTION ( 'NONE',  ( -0.000000000000000000, -0.000000000000000000, -1.000000000000000000 ) ) ;
#273 = ORIENTED_EDGE ( 'NONE', *, *, #64, .T. ) ;
#274 = APPROVAL_STATUS ( 'not_yet_approved' ) ;
#275 = APPROVAL_ROLE ( '' ) ;
#276 = DATE_AND_TIME ( #19, #99 ) ;
#277 = AXIS2_PLACEMENT_3D ( 'NONE', #165, #260, #51 ) ;
#278 = PERSON_AND_ORGANIZATION_ROLE ( 'creator' ) ;
#279 = DIRECTION ( 'NONE',  ( 0.000000000000000000, 0.000000000000000000, -1.000000000000000000 ) ) ;
#280 = ADVANCED_FACE ( 'NONE', ( #166 ), #262, .T. ) ;
#281 = PRODUCT_DEFINITION_SHAPE ( 'NONE', 'NONE',  #77 ) ;
#282 = LINE ( 'NONE', #49, #284 ) ;
#283 = DIRECTION ( 'NONE',  ( -0.000000000000000000, -0.000000000000000000, -1.000000000000000000 ) ) ;
#284 = VECTOR ( 'NONE', #162, 1000.000000000000000 ) ;
#285 = AXIS2_PLACEMENT_3D ( 'NONE', #152, #155, #171 ) ;
#286 = DIRECTION ( 'NONE',  ( 1.000000000000000000, 0.000000000000000000, 0.000000000000000000 ) ) ;
#287 = CARTESIAN_POINT ( 'NONE',  ( 0.000000000000000000, 0.000000000000000000, 253.0000000000000000 ) ) ;
#288 = CARTESIAN_POINT ( 'NONE',  ( 0.000000000000000000, 0.000000000000000000, 0.000000000000000000 ) ) ;
#289 = CIRCLE ( 'NONE', #243, 3.000000000000000444 ) ;
#290 = VERTEX_POINT ( 'NONE', #164 ) ;
#291 = ORIENTED_EDGE ( 'NONE', *, *, #9, .T. ) ;
#292 = UNCERTAINTY_MEASURE_WITH_UNIT (LENGTH_MEASURE( 1.000000000000000082E-05 ), #117, 'distance_accuracy_value', 'NONE');
#293 = AXIS2_PLACEMENT_3D ( 'NONE', #288, #78, #140 ) ;
#294 = DIRECTION ( 'NONE',  ( 1.000000000000000000, 0.000000000000000000, 0.000000000000000000 ) ) ;
#295 = EDGE_CURVE ( 'NONE', #153, #38, #121, .T. ) ;
#296 = CARTESIAN_POINT ( 'NONE',  ( 3.000000000000000444, 3.673940397442060361E-16, 0.000000000000000000 ) ) ;
#297 = FACE_OUTER_BOUND ( 'NONE', #242, .T. ) ;
#298 = ORIENTED_EDGE ( 'NONE', *, *, #265, .F. ) ;
#299 = CIRCLE ( 'NONE', #177, 0.2000000000000000944 ) ;
#300 = COORDINATED_UNIVERSAL_TIME_OFFSET ( 1, 0, .AHEAD. ) ;
#301 = CARTESIAN_POINT ( 'NONE',  ( 0.000000000000000000, 0.000000000000000000, 3.000000000000000000 ) ) ;
#302 = SECURITY_CLASSIFICATION_LEVEL ( 'unclassified' ) ;
#303 = PERSON_AND_ORGANIZATION ( #105, #54 ) ;
#304 = CALENDAR_DATE ( 2022, 7, 7 ) ;
#305 = CARTESIAN_POINT ( 'NONE',  ( 0.000000000000000000, 0.000000000000000000, 0.000000000000000000 ) ) ;
#306 = FACE_OUTER_BOUND ( 'NONE', #63, .T. ) ;
#307 = FACE_BOUND ( 'NONE', #4, .T. ) ;
ENDSEC;
END-ISO-10303-21;
