ISO-10303-21;
HEADER;
FILE_DESCRIPTION (( 'STEP AP203' ),
    '1' );
FILE_NAME ('2cfb.STEP',
    '2022-07-07T09:53:21',
    ( '' ),
    ( '' ),
    'SwSTEP 2.0',
    'SolidWorks 2019',
    '' );
FILE_SCHEMA (( 'CONFIG_CONTROL_DESIGN' ));
ENDSEC;

DATA;
#1 = EDGE_LOOP ( 'NONE', ( #108, #84, #211, #181 ) ) ;
#2 = CARTESIAN_POINT ( 'NONE',  ( 0.000000000000000000, 0.000000000000000000, 0.000000000000000000 ) ) ;
#3 = ORIENTED_EDGE ( 'NONE', *, *, #140, .F. ) ;
#4 = CC_DESIGN_DATE_AND_TIME_ASSIGNMENT ( #42, #132, ( #110 ) ) ;
#5 = PRODUCT_DEFINITION_SHAPE ( 'NONE', 'NONE',  #192 ) ;
#6 = DIRECTION ( 'NONE',  ( -0.000000000000000000, -0.000000000000000000, -1.000000000000000000 ) ) ;
#7 = DIRECTION ( 'NONE',  ( 0.000000000000000000, 0.000000000000000000, 1.000000000000000000 ) ) ;
#8 = PLANE ( 'NONE',  #141 ) ;
#9 = DIRECTION ( 'NONE',  ( -1.000000000000000000, 0.000000000000000000, 0.000000000000000000 ) ) ;
#10 = CARTESIAN_POINT ( 'NONE',  ( 0.000000000000000000, 0.000000000000000000, 5.000000000000000000 ) ) ;
#11 = APPROVAL_DATE_TIME ( #196, #29 ) ;
#12 = ORIENTED_EDGE ( 'NONE', *, *, #290, .F. ) ;
#13 = DIRECTION ( 'NONE',  ( 1.000000000000000000, 0.000000000000000000, 0.000000000000000000 ) ) ;
#14 = CC_DESIGN_PERSON_AND_ORGANIZATION_ASSIGNMENT ( #109, #295, ( #52 ) ) ;
#15 = SECURITY_CLASSIFICATION_LEVEL ( 'unclassified' ) ;
#16 = EDGE_LOOP ( 'NONE', ( #176, #20 ) ) ;
#17 = ADVANCED_FACE ( 'NONE', ( #284 ), #94, .T. ) ;
#18 = CIRCLE ( 'NONE', #95, 5.000000000000000888 ) ;
#19 = DIRECTION ( 'NONE',  ( 0.000000000000000000, 0.000000000000000000, 1.000000000000000000 ) ) ;
#20 = ORIENTED_EDGE ( 'NONE', *, *, #134, .F. ) ;
#21 = CIRCLE ( 'NONE', #262, 8.000000000000000000 ) ;
#22 = CARTESIAN_POINT ( 'NONE',  ( 0.000000000000000000, 0.000000000000000000, 1204.999999999999773 ) ) ;
#23 = EDGE_CURVE ( 'NONE', #236, #234, #21, .T. ) ;
#24 = CC_DESIGN_APPROVAL ( #29, ( #306 ) ) ;
#25 = DIRECTION ( 'NONE',  ( 1.000000000000000000, 0.000000000000000000, 0.000000000000000000 ) ) ;
#26 = CYLINDRICAL_SURFACE ( 'NONE', #56, 8.000000000000000000 ) ;
#27 = CIRCLE ( 'NONE', #275, 5.000000000000000888 ) ;
#28 = CARTESIAN_POINT ( 'NONE',  ( -5.200000000000001066, 6.368163355566237368E-16, 5.200000000000093436 ) ) ;
#29 = APPROVAL ( #90, 'NEURÈENÝ' ) ;
#30 = CARTESIAN_POINT ( 'NONE',  ( 0.000000000000000000, 0.000000000000000000, 5.200000000000093436 ) ) ;
#31 = ORIENTED_EDGE ( 'NONE', *, *, #89, .T. ) ;
#32 = CALENDAR_DATE ( 2022, 7, 7 ) ;
#33 = EDGE_CURVE ( 'NONE', #60, #64, #235, .T. ) ;
#34 = DIRECTION ( 'NONE',  ( -0.000000000000000000, -0.000000000000000000, -1.000000000000000000 ) ) ;
#35 = ADVANCED_BREP_SHAPE_REPRESENTATION ( '2cfb', ( #44, #126 ), #159 ) ;
#36 = COORDINATED_UNIVERSAL_TIME_OFFSET ( 1, 0, .AHEAD. ) ;
#37 = CARTESIAN_POINT ( 'NONE',  ( 0.000000000000000000, 0.000000000000000000, 5.000000000000000000 ) ) ;
#38 = PERSON_AND_ORGANIZATION ( #199, #229 ) ;
#39 = EDGE_CURVE ( 'NONE', #248, #40, #253, .T. ) ;
#40 = VERTEX_POINT ( 'NONE', #285 ) ;
#41 = APPLICATION_PROTOCOL_DEFINITION ( 'international standard', 'config_control_design', 1994, #233 ) ;
#42 = DATE_AND_TIME ( #301, #201 ) ;
#43 = UNCERTAINTY_MEASURE_WITH_UNIT (LENGTH_MEASURE( 1.000000000000000082E-05 ), #152, 'distance_accuracy_value', 'NONE');
#44 = MANIFOLD_SOLID_BREP ( 'Zaoblit1', #156 ) ;
#45 = AXIS2_PLACEMENT_3D ( 'NONE', #30, #7, #194 ) ;
#46 = LOCAL_TIME ( 11, 53, 21.00000000000000000, #147 ) ;
#47 = DIRECTION ( 'NONE',  ( 0.000000000000000000, 0.000000000000000000, -1.000000000000000000 ) ) ;
#48 = DIRECTION ( 'NONE',  ( -0.000000000000000000, -0.000000000000000000, -1.000000000000000000 ) ) ;
#49 = EDGE_LOOP ( 'NONE', ( #257, #68 ) ) ;
#50 = ORIENTED_EDGE ( 'NONE', *, *, #242, .T. ) ;
#51 = VERTEX_POINT ( 'NONE', #279 ) ;
#52 = PRODUCT ( '2cfb', '2cfb', '', ( #131 ) ) ;
#53 = CARTESIAN_POINT ( 'NONE',  ( 0.000000000000000000, 0.000000000000000000, 5.200000000000093436 ) ) ;
#54 = DIRECTION ( 'NONE',  ( -0.000000000000000000, -0.000000000000000000, -1.000000000000000000 ) ) ;
#55 = DIRECTION ( 'NONE',  ( -0.000000000000000000, -0.000000000000000000, -1.000000000000000000 ) ) ;
#56 = AXIS2_PLACEMENT_3D ( 'NONE', #123, #55, #9 ) ;
#57 = CC_DESIGN_APPROVAL ( #276, ( #192 ) ) ;
#58 = FACE_OUTER_BOUND ( 'NONE', #138, .T. ) ;
#59 = PERSON_AND_ORGANIZATION_ROLE ( 'creator' ) ;
#60 = VERTEX_POINT ( 'NONE', #161 ) ;
#61 = CARTESIAN_POINT ( 'NONE',  ( 0.000000000000000000, 0.000000000000000000, 5.000000000000000000 ) ) ;
#62 = CIRCLE ( 'NONE', #294, 5.200000000000001066 ) ;
#63 = APPROVAL_ROLE ( '' ) ;
#64 = VERTEX_POINT ( 'NONE', #256 ) ;
#65 = CARTESIAN_POINT ( 'NONE',  ( 0.000000000000000000, 0.000000000000000000, 0.000000000000000000 ) ) ;
#66 = CALENDAR_DATE ( 2022, 7, 7 ) ;
#67 = APPROVAL ( #272, 'NEURÈENÝ' ) ;
#68 = ORIENTED_EDGE ( 'NONE', *, *, #82, .T. ) ;
#69 = DESIGN_CONTEXT ( 'detailed design', #107, 'design' ) ;
#70 = EDGE_CURVE ( 'NONE', #115, #146, #296, .T. ) ;
#71 = CARTESIAN_POINT ( 'NONE',  ( 0.000000000000000000, 0.000000000000000000, 1204.999999999999773 ) ) ;
#72 = CIRCLE ( 'NONE', #239, 8.000000000000000000 ) ;
#73 = DIRECTION ( 'NONE',  ( 1.000000000000000000, 0.000000000000000000, 0.000000000000000000 ) ) ;
#74 = DIRECTION ( 'NONE',  ( 0.000000000000000000, 0.000000000000000000, 1.000000000000000000 ) ) ;
#75 = CIRCLE ( 'NONE', #190, 5.000000000000000888 ) ;
#76 = ORIENTED_EDGE ( 'NONE', *, *, #270, .F. ) ;
#77 = DIRECTION ( 'NONE',  ( 0.000000000000000000, 0.000000000000000000, 1.000000000000000000 ) ) ;
#78 = DIRECTION ( 'NONE',  ( 0.000000000000000000, 0.000000000000000000, 1.000000000000000000 ) ) ;
#79 = FACE_OUTER_BOUND ( 'NONE', #273, .T. ) ;
#80 = CARTESIAN_POINT ( 'NONE',  ( 0.000000000000000000, 0.000000000000000000, 5.200000000000093436 ) ) ;
#81 = CARTESIAN_POINT ( 'NONE',  ( 8.000000000000000000, 9.797174393178825657E-16, 5.000000000000000000 ) ) ;
#82 = EDGE_CURVE ( 'NONE', #146, #115, #27, .T. ) ;
#83 = AXIS2_PLACEMENT_3D ( 'NONE', #28, #166, #142 ) ;
#84 = ORIENTED_EDGE ( 'NONE', *, *, #89, .F. ) ;
#85 = DIRECTION ( 'NONE',  ( 0.000000000000000000, 0.000000000000000000, 1.000000000000000000 ) ) ;
#86 = COORDINATED_UNIVERSAL_TIME_OFFSET ( 1, 0, .AHEAD. ) ;
#87 = AXIS2_PLACEMENT_3D ( 'NONE', #232, #48, #96 ) ;
#88 =( NAMED_UNIT ( * ) SI_UNIT ( $, .STERADIAN. ) SOLID_ANGLE_UNIT ( ) );
#89 = EDGE_CURVE ( 'NONE', #234, #236, #197, .T. ) ;
#90 = APPROVAL_STATUS ( 'not_yet_approved' ) ;
#91 = DIRECTION ( 'NONE',  ( -0.000000000000000000, -0.000000000000000000, -1.000000000000000000 ) ) ;
#92 = COORDINATED_UNIVERSAL_TIME_OFFSET ( 1, 0, .AHEAD. ) ;
#93 = CC_DESIGN_PERSON_AND_ORGANIZATION_ASSIGNMENT ( #195, #59, ( #192 ) ) ;
#94 = CYLINDRICAL_SURFACE ( 'NONE', #87, 8.000000000000000000 ) ;
#95 = AXIS2_PLACEMENT_3D ( 'NONE', #80, #78, #168 ) ;
#96 = DIRECTION ( 'NONE',  ( -1.000000000000000000, 0.000000000000000000, 0.000000000000000000 ) ) ;
#97 = ORIENTED_EDGE ( 'NONE', *, *, #186, .F. ) ;
#98 = DIRECTION ( 'NONE',  ( 0.000000000000000000, 0.000000000000000000, 1.000000000000000000 ) ) ;
#99 = VECTOR ( 'NONE', #173, 1000.000000000000000 ) ;
#100 = CARTESIAN_POINT ( 'NONE',  ( 5.200000000000001066, 0.000000000000000000, 5.200000000000093436 ) ) ;
#101 = PLANE ( 'NONE',  #293 ) ;
#102 = DIRECTION ( 'NONE',  ( 1.000000000000000000, 0.000000000000000000, -0.000000000000000000 ) ) ;
#103 = CC_DESIGN_APPROVAL ( #67, ( #110 ) ) ;
#104 = FACE_OUTER_BOUND ( 'NONE', #139, .T. ) ;
#105 = LINE ( 'NONE', #265, #119 ) ;
#106 = CARTESIAN_POINT ( 'NONE',  ( 0.000000000000000000, 0.000000000000000000, 5.200000000000093436 ) ) ;
#107 = APPLICATION_CONTEXT ( 'configuration controlled 3d designs of mechanical parts and assemblies' ) ;
#108 = ORIENTED_EDGE ( 'NONE', *, *, #218, .F. ) ;
#109 = PERSON_AND_ORGANIZATION ( #199, #229 ) ;
#110 = SECURITY_CLASSIFICATION ( '', '', #15 ) ;
#111 = ORIENTED_EDGE ( 'NONE', *, *, #186, .T. ) ;
#112 = LOCAL_TIME ( 11, 53, 21.00000000000000000, #198 ) ;
#113 = ORIENTED_EDGE ( 'NONE', *, *, #140, .T. ) ;
#114 = CC_DESIGN_PERSON_AND_ORGANIZATION_ASSIGNMENT ( #158, #175, ( #110 ) ) ;
#115 = VERTEX_POINT ( 'NONE', #207 ) ;
#116 = VERTEX_POINT ( 'NONE', #255 ) ;
#117 = FACE_OUTER_BOUND ( 'NONE', #16, .T. ) ;
#118 = AXIS2_PLACEMENT_3D ( 'NONE', #100, #182, #47 ) ;
#119 = VECTOR ( 'NONE', #241, 1000.000000000000000 ) ;
#120 = FACE_OUTER_BOUND ( 'NONE', #1, .T. ) ;
#121 = AXIS2_PLACEMENT_3D ( 'NONE', #292, #91, #200 ) ;
#122 = CC_DESIGN_DATE_AND_TIME_ASSIGNMENT ( #127, #230, ( #192 ) ) ;
#123 = CARTESIAN_POINT ( 'NONE',  ( 0.000000000000000000, 0.000000000000000000, 5.000000000000000000 ) ) ;
#124 = ORIENTED_EDGE ( 'NONE', *, *, #282, .F. ) ;
#125 = DATE_AND_TIME ( #32, #46 ) ;
#126 = AXIS2_PLACEMENT_3D ( 'NONE', #65, #154, #227 ) ;
#127 = DATE_AND_TIME ( #66, #163 ) ;
#128 = DIRECTION ( 'NONE',  ( 1.000000000000000000, 0.000000000000000000, -0.000000000000000000 ) ) ;
#129 = PERSON_AND_ORGANIZATION ( #199, #229 ) ;
#130 = ORIENTED_EDGE ( 'NONE', *, *, #70, .F. ) ;
#131 = MECHANICAL_CONTEXT ( 'NONE', #233, 'mechanical' ) ;
#132 = DATE_TIME_ROLE ( 'classification_date' ) ;
#133 = TOROIDAL_SURFACE ( 'NONE', #45, 5.200000000000001066, 0.2000000000000000111 ) ;
#134 = EDGE_CURVE ( 'NONE', #64, #60, #72, .T. ) ;
#135 = DIRECTION ( 'NONE',  ( -0.000000000000000000, -0.000000000000000000, -1.000000000000000000 ) ) ;
#136 = EDGE_LOOP ( 'NONE', ( #202, #221, #50, #3 ) ) ;
#137 = ORIENTED_EDGE ( 'NONE', *, *, #39, .T. ) ;
#138 = EDGE_LOOP ( 'NONE', ( #12, #111, #124, #243 ) ) ;
#139 = EDGE_LOOP ( 'NONE', ( #76, #130, #113, #226 ) ) ;
#140 = EDGE_CURVE ( 'NONE', #115, #51, #305, .T. ) ;
#141 = AXIS2_PLACEMENT_3D ( 'NONE', #171, #213, #102 ) ;
#142 = DIRECTION ( 'NONE',  ( -1.000000000000000000, 1.224646799147353454E-16, 0.000000000000000000 ) ) ;
#143 = CARTESIAN_POINT ( 'NONE',  ( 0.000000000000000000, 0.000000000000000000, 0.000000000000000000 ) ) ;
#144 = ADVANCED_FACE ( 'NONE', ( #120 ), #26, .T. ) ;
#145 = PLANE ( 'NONE',  #260 ) ;
#146 = VERTEX_POINT ( 'NONE', #263 ) ;
#147 = COORDINATED_UNIVERSAL_TIME_OFFSET ( 1, 0, .AHEAD. ) ;
#148 = CARTESIAN_POINT ( 'NONE',  ( 5.000000000000000888, 6.123233995736767268E-16, 1204.999999999999773 ) ) ;
#149 = EDGE_CURVE ( 'NONE', #234, #60, #105, .T. ) ;
#150 = TOROIDAL_SURFACE ( 'NONE', #220, 5.200000000000001066, 0.2000000000000000111 ) ;
#151 = EDGE_LOOP ( 'NONE', ( #160, #247 ) ) ;
#152 =( LENGTH_UNIT ( ) NAMED_UNIT ( * ) SI_UNIT ( .MILLI., .METRE. ) );
#153 = CALENDAR_DATE ( 2022, 7, 7 ) ;
#154 = DIRECTION ( 'NONE',  ( 0.000000000000000000, 0.000000000000000000, 1.000000000000000000 ) ) ;
#155 = APPROVAL_ROLE ( '' ) ;
#156 = CLOSED_SHELL ( 'NONE', ( #179, #297, #17, #144, #264, #209, #170, #225, #251 ) ) ;
#157 = ORIENTED_EDGE ( 'NONE', *, *, #218, .T. ) ;
#158 = PERSON_AND_ORGANIZATION ( #199, #229 ) ;
#159 =( GEOMETRIC_REPRESENTATION_CONTEXT ( 3 ) GLOBAL_UNCERTAINTY_ASSIGNED_CONTEXT ( ( #43 ) ) GLOBAL_UNIT_ASSIGNED_CONTEXT ( ( #152, #300, #88 ) ) REPRESENTATION_CONTEXT ( 'NONE', 'WORKASPACE' ) );
#160 = ORIENTED_EDGE ( 'NONE', *, *, #282, .T. ) ;
#161 = CARTESIAN_POINT ( 'NONE',  ( -8.000000000000000000, 0.000000000000000000, 0.000000000000000000 ) ) ;
#162 = CARTESIAN_POINT ( 'NONE',  ( 0.000000000000000000, 0.000000000000000000, 0.000000000000000000 ) ) ;
#163 = LOCAL_TIME ( 11, 53, 21.00000000000000000, #36 ) ;
#164 = CARTESIAN_POINT ( 'NONE',  ( 0.000000000000000000, 0.000000000000000000, 5.000000000000000000 ) ) ;
#165 = DIRECTION ( 'NONE',  ( 1.000000000000000000, 0.000000000000000000, 0.000000000000000000 ) ) ;
#166 = DIRECTION ( 'NONE',  ( 1.224646799147353207E-16, 1.000000000000000000, -0.000000000000000000 ) ) ;
#167 = LOCAL_TIME ( 11, 53, 21.00000000000000000, #86 ) ;
#168 = DIRECTION ( 'NONE',  ( 1.000000000000000000, 0.000000000000000000, 0.000000000000000000 ) ) ;
#169 = FACE_BOUND ( 'NONE', #151, .T. ) ;
#170 = ADVANCED_FACE ( 'NONE', ( #104 ), #287, .T. ) ;
#171 = CARTESIAN_POINT ( 'NONE',  ( 0.000000000000000000, 0.000000000000000000, 1204.999999999999773 ) ) ;
#172 = AXIS2_PLACEMENT_3D ( 'NONE', #191, #6, #289 ) ;
#173 = DIRECTION ( 'NONE',  ( -0.000000000000000000, -0.000000000000000000, -1.000000000000000000 ) ) ;
#174 = DIRECTION ( 'NONE',  ( 1.000000000000000000, 0.000000000000000000, 0.000000000000000000 ) ) ;
#175 = PERSON_AND_ORGANIZATION_ROLE ( 'classification_officer' ) ;
#176 = ORIENTED_EDGE ( 'NONE', *, *, #33, .F. ) ;
#177 = CALENDAR_DATE ( 2022, 7, 7 ) ;
#178 = PERSON_AND_ORGANIZATION ( #199, #229 ) ;
#179 = ADVANCED_FACE ( 'NONE', ( #58 ), #133, .F. ) ;
#180 = APPLICATION_PROTOCOL_DEFINITION ( 'international standard', 'config_control_design', 1994, #107 ) ;
#181 = ORIENTED_EDGE ( 'NONE', *, *, #33, .T. ) ;
#182 = DIRECTION ( 'NONE',  ( 0.000000000000000000, -1.000000000000000000, 0.000000000000000000 ) ) ;
#183 = AXIS2_PLACEMENT_3D ( 'NONE', #237, #74, #73 ) ;
#184 = DIRECTION ( 'NONE',  ( 1.000000000000000000, 0.000000000000000000, 0.000000000000000000 ) ) ;
#185 = ORIENTED_EDGE ( 'NONE', *, *, #23, .F. ) ;
#186 = EDGE_CURVE ( 'NONE', #51, #116, #210, .T. ) ;
#187 = ORIENTED_EDGE ( 'NONE', *, *, #242, .F. ) ;
#188 = CARTESIAN_POINT ( 'NONE',  ( -8.000000000000000000, 0.000000000000000000, 5.000000000000000000 ) ) ;
#189 = LINE ( 'NONE', #291, #277 ) ;
#190 = AXIS2_PLACEMENT_3D ( 'NONE', #106, #85, #299 ) ;
#191 = CARTESIAN_POINT ( 'NONE',  ( 0.000000000000000000, 0.000000000000000000, 1204.999999999999773 ) ) ;
#192 = PRODUCT_DEFINITION ( 'NEZNÁMÝ', '', #306, #69 ) ;
#193 = AXIS2_PLACEMENT_3D ( 'NONE', #71, #19, #205 ) ;
#194 = DIRECTION ( 'NONE',  ( 1.000000000000000000, 0.000000000000000000, 0.000000000000000000 ) ) ;
#195 = PERSON_AND_ORGANIZATION ( #199, #229 ) ;
#196 = DATE_AND_TIME ( #177, #167 ) ;
#197 = CIRCLE ( 'NONE', #183, 8.000000000000000000 ) ;
#198 = COORDINATED_UNIVERSAL_TIME_OFFSET ( 1, 0, .AHEAD. ) ;
#199 = PERSON ( 'NEURÈENÝ', 'NEURÈENÝ', 'NEURÈENÝ', ('NEURÈENÝ'), ('NEURÈENÝ'), ('NEURÈENÝ') ) ;
#200 = DIRECTION ( 'NONE',  ( -1.000000000000000000, 0.000000000000000000, 0.000000000000000000 ) ) ;
#201 = LOCAL_TIME ( 11, 53, 21.00000000000000000, #92 ) ;
#202 = ORIENTED_EDGE ( 'NONE', *, *, #82, .F. ) ;
#203 = PERSON_AND_ORGANIZATION ( #199, #229 ) ;
#204 = DATE_AND_TIME ( #153, #112 ) ;
#205 = DIRECTION ( 'NONE',  ( 1.000000000000000000, 0.000000000000000000, 0.000000000000000000 ) ) ;
#206 = DIRECTION ( 'NONE',  ( 0.000000000000000000, 0.000000000000000000, 1.000000000000000000 ) ) ;
#207 = CARTESIAN_POINT ( 'NONE',  ( -5.000000000000000888, 0.000000000000000000, 1204.999999999999773 ) ) ;
#208 = ORIENTED_EDGE ( 'NONE', *, *, #23, .T. ) ;
#209 = ADVANCED_FACE ( 'NONE', ( #117 ), #101, .F. ) ;
#210 = CIRCLE ( 'NONE', #83, 0.1999999999999996503 ) ;
#211 = ORIENTED_EDGE ( 'NONE', *, *, #149, .T. ) ;
#212 = AXIS2_PLACEMENT_3D ( 'NONE', #162, #98, #184 ) ;
#213 = DIRECTION ( 'NONE',  ( 0.000000000000000000, 0.000000000000000000, 1.000000000000000000 ) ) ;
#214 = CC_DESIGN_PERSON_AND_ORGANIZATION_ASSIGNMENT ( #178, #267, ( #306 ) ) ;
#215 = FACE_OUTER_BOUND ( 'NONE', #49, .T. ) ;
#216 = AXIS2_PLACEMENT_3D ( 'NONE', #10, #249, #13 ) ;
#217 = DIRECTION ( 'NONE',  ( 0.000000000000000000, 0.000000000000000000, 1.000000000000000000 ) ) ;
#218 = EDGE_CURVE ( 'NONE', #236, #64, #189, .T. ) ;
#219 = APPROVAL_DATE_TIME ( #125, #276 ) ;
#220 = AXIS2_PLACEMENT_3D ( 'NONE', #53, #238, #288 ) ;
#221 = ORIENTED_EDGE ( 'NONE', *, *, #270, .T. ) ;
#222 = SHAPE_DEFINITION_REPRESENTATION ( #5, #35 ) ;
#223 = DIRECTION ( 'NONE',  ( 0.000000000000000000, 0.000000000000000000, 1.000000000000000000 ) ) ;
#224 = PERSON_AND_ORGANIZATION ( #199, #229 ) ;
#225 = ADVANCED_FACE ( 'NONE', ( #215 ), #8, .T. ) ;
#226 = ORIENTED_EDGE ( 'NONE', *, *, #290, .T. ) ;
#227 = DIRECTION ( 'NONE',  ( 1.000000000000000000, 0.000000000000000000, 0.000000000000000000 ) ) ;
#228 = APPROVAL_DATE_TIME ( #204, #67 ) ;
#229 = ORGANIZATION ( 'NEURÈENÝ', 'NEURÈENÝ', '' ) ;
#230 = DATE_TIME_ROLE ( 'creation_date' ) ;
#231 = ORIENTED_EDGE ( 'NONE', *, *, #304, .F. ) ;
#232 = CARTESIAN_POINT ( 'NONE',  ( 0.000000000000000000, 0.000000000000000000, 5.000000000000000000 ) ) ;
#233 = APPLICATION_CONTEXT ( 'configuration controlled 3d designs of mechanical parts and assemblies' ) ;
#234 = VERTEX_POINT ( 'NONE', #188 ) ;
#235 = CIRCLE ( 'NONE', #212, 8.000000000000000000 ) ;
#236 = VERTEX_POINT ( 'NONE', #81 ) ;
#237 = CARTESIAN_POINT ( 'NONE',  ( 0.000000000000000000, 0.000000000000000000, 5.000000000000000000 ) ) ;
#238 = DIRECTION ( 'NONE',  ( 0.000000000000000000, 0.000000000000000000, 1.000000000000000000 ) ) ;
#239 = AXIS2_PLACEMENT_3D ( 'NONE', #2, #206, #25 ) ;
#240 = FACE_OUTER_BOUND ( 'NONE', #307, .T. ) ;
#241 = DIRECTION ( 'NONE',  ( -0.000000000000000000, -0.000000000000000000, -1.000000000000000000 ) ) ;
#242 = EDGE_CURVE ( 'NONE', #248, #51, #18, .T. ) ;
#243 = ORIENTED_EDGE ( 'NONE', *, *, #39, .F. ) ;
#244 = LINE ( 'NONE', #148, #99 ) ;
#245 = CYLINDRICAL_SURFACE ( 'NONE', #121, 5.000000000000000888 ) ;
#246 = CC_DESIGN_SECURITY_CLASSIFICATION ( #110, ( #306 ) ) ;
#247 = ORIENTED_EDGE ( 'NONE', *, *, #304, .T. ) ;
#248 = VERTEX_POINT ( 'NONE', #258 ) ;
#249 = DIRECTION ( 'NONE',  ( -0.000000000000000000, -0.000000000000000000, -1.000000000000000000 ) ) ;
#250 = PERSON_AND_ORGANIZATION_ROLE ( 'creator' ) ;
#251 = ADVANCED_FACE ( 'NONE', ( #240 ), #150, .F. ) ;
#252 = CARTESIAN_POINT ( 'NONE',  ( -5.000000000000000888, 0.000000000000000000, 1204.999999999999773 ) ) ;
#253 = CIRCLE ( 'NONE', #118, 0.1999999999999996503 ) ;
#254 = ORIENTED_EDGE ( 'NONE', *, *, #134, .T. ) ;
#255 = CARTESIAN_POINT ( 'NONE',  ( -5.200000000000001066, 6.368163355566237368E-16, 5.000000000000047073 ) ) ;
#256 = CARTESIAN_POINT ( 'NONE',  ( 8.000000000000000000, 9.797174393178825657E-16, 0.000000000000000000 ) ) ;
#257 = ORIENTED_EDGE ( 'NONE', *, *, #70, .T. ) ;
#258 = CARTESIAN_POINT ( 'NONE',  ( 5.000000000000000888, 6.123233995736767268E-16, 5.200000000000093436 ) ) ;
#259 = PRODUCT_RELATED_PRODUCT_CATEGORY ( 'detail', '', ( #52 ) ) ;
#260 = AXIS2_PLACEMENT_3D ( 'NONE', #37, #223, #128 ) ;
#261 = DIRECTION ( 'NONE',  ( 1.000000000000000000, 0.000000000000000000, -0.000000000000000000 ) ) ;
#262 = AXIS2_PLACEMENT_3D ( 'NONE', #164, #278, #281 ) ;
#263 = CARTESIAN_POINT ( 'NONE',  ( 5.000000000000000888, 6.123233995736767268E-16, 1204.999999999999773 ) ) ;
#264 = ADVANCED_FACE ( 'NONE', ( #169, #79 ), #145, .T. ) ;
#265 = CARTESIAN_POINT ( 'NONE',  ( -8.000000000000000000, 0.000000000000000000, 5.000000000000000000 ) ) ;
#266 = APPROVAL_PERSON_ORGANIZATION ( #224, #67, #63 ) ;
#267 = PERSON_AND_ORGANIZATION_ROLE ( 'design_supplier' ) ;
#268 = EDGE_LOOP ( 'NONE', ( #185, #157, #254, #298 ) ) ;
#269 = FACE_OUTER_BOUND ( 'NONE', #136, .T. ) ;
#270 = EDGE_CURVE ( 'NONE', #146, #248, #244, .T. ) ;
#271 = CIRCLE ( 'NONE', #216, 5.200000000000001066 ) ;
#272 = APPROVAL_STATUS ( 'not_yet_approved' ) ;
#273 = EDGE_LOOP ( 'NONE', ( #31, #208 ) ) ;
#274 = APPROVAL_ROLE ( '' ) ;
#275 = AXIS2_PLACEMENT_3D ( 'NONE', #22, #77, #165 ) ;
#276 = APPROVAL ( #303, 'NEURÈENÝ' ) ;
#277 = VECTOR ( 'NONE', #54, 1000.000000000000000 ) ;
#278 = DIRECTION ( 'NONE',  ( 0.000000000000000000, 0.000000000000000000, 1.000000000000000000 ) ) ;
#279 = CARTESIAN_POINT ( 'NONE',  ( -5.000000000000000888, 0.000000000000000000, 5.200000000000093436 ) ) ;
#280 = VECTOR ( 'NONE', #135, 1000.000000000000000 ) ;
#281 = DIRECTION ( 'NONE',  ( 1.000000000000000000, 0.000000000000000000, 0.000000000000000000 ) ) ;
#282 = EDGE_CURVE ( 'NONE', #40, #116, #271, .T. ) ;
#283 = APPROVAL_PERSON_ORGANIZATION ( #38, #29, #155 ) ;
#284 = FACE_OUTER_BOUND ( 'NONE', #268, .T. ) ;
#285 = CARTESIAN_POINT ( 'NONE',  ( 5.200000000000001066, 0.000000000000000000, 5.000000000000047073 ) ) ;
#286 = CC_DESIGN_PERSON_AND_ORGANIZATION_ASSIGNMENT ( #129, #250, ( #306 ) ) ;
#287 = CYLINDRICAL_SURFACE ( 'NONE', #172, 5.000000000000000888 ) ;
#288 = DIRECTION ( 'NONE',  ( 1.000000000000000000, 0.000000000000000000, 0.000000000000000000 ) ) ;
#289 = DIRECTION ( 'NONE',  ( -1.000000000000000000, 0.000000000000000000, 0.000000000000000000 ) ) ;
#290 = EDGE_CURVE ( 'NONE', #51, #248, #75, .T. ) ;
#291 = CARTESIAN_POINT ( 'NONE',  ( 8.000000000000000000, 9.797174393178825657E-16, 5.000000000000000000 ) ) ;
#292 = CARTESIAN_POINT ( 'NONE',  ( 0.000000000000000000, 0.000000000000000000, 1204.999999999999773 ) ) ;
#293 = AXIS2_PLACEMENT_3D ( 'NONE', #143, #217, #261 ) ;
#294 = AXIS2_PLACEMENT_3D ( 'NONE', #61, #34, #174 ) ;
#295 = PERSON_AND_ORGANIZATION_ROLE ( 'design_owner' ) ;
#296 = CIRCLE ( 'NONE', #193, 5.000000000000000888 ) ;
#297 = ADVANCED_FACE ( 'NONE', ( #269 ), #245, .T. ) ;
#298 = ORIENTED_EDGE ( 'NONE', *, *, #149, .F. ) ;
#299 = DIRECTION ( 'NONE',  ( 1.000000000000000000, 0.000000000000000000, 0.000000000000000000 ) ) ;
#300 =( NAMED_UNIT ( * ) PLANE_ANGLE_UNIT ( ) SI_UNIT ( $, .RADIAN. ) );
#301 = CALENDAR_DATE ( 2022, 7, 7 ) ;
#302 = APPROVAL_PERSON_ORGANIZATION ( #203, #276, #274 ) ;
#303 = APPROVAL_STATUS ( 'not_yet_approved' ) ;
#304 = EDGE_CURVE ( 'NONE', #116, #40, #62, .T. ) ;
#305 = LINE ( 'NONE', #252, #280 ) ;
#306 = PRODUCT_DEFINITION_FORMATION_WITH_SPECIFIED_SOURCE ( 'LIBOVOLNÝ', '', #52, .NOT_KNOWN. ) ;
#307 = EDGE_LOOP ( 'NONE', ( #97, #187, #137, #231 ) ) ;
ENDSEC;
END-ISO-10303-21;
