ISO-10303-21;
HEADER;
FILE_DESCRIPTION (( 'STEP AP203' ),
    '1' );
FILE_NAME ('20ac.STEP',
    '2022-07-07T09:29:38',
    ( '' ),
    ( '' ),
    'SwSTEP 2.0',
    'SolidWorks 2019',
    '' );
FILE_SCHEMA (( 'CONFIG_CONTROL_DESIGN' ));
ENDSEC;

DATA;
#1 = APPROVAL_DATE_TIME ( #116, #218 ) ;
#2 = AXIS2_PLACEMENT_3D ( 'NONE', #243, #150, #175 ) ;
#3 = ORIENTED_EDGE ( 'NONE', *, *, #210, .T. ) ;
#4 = ORGANIZATION ( 'NEURÈENÝ', 'NEURÈENÝ', '' ) ;
#5 = CC_DESIGN_DATE_AND_TIME_ASSIGNMENT ( #179, #271, ( #198 ) ) ;
#6 = ORIENTED_EDGE ( 'NONE', *, *, #173, .F. ) ;
#7 = EDGE_LOOP ( 'NONE', ( #86, #189 ) ) ;
#8 = CARTESIAN_POINT ( 'NONE',  ( -20.00000000000000000, 0.000000000000000000, 0.000000000000000000 ) ) ;
#9 = AXIS2_PLACEMENT_3D ( 'NONE', #238, #172, #47 ) ;
#10 = CARTESIAN_POINT ( 'NONE',  ( 16.19999999999999929, 0.000000000000000000, 10.19999999999998685 ) ) ;
#11 = DIRECTION ( 'NONE',  ( -0.000000000000000000, -0.000000000000000000, -1.000000000000000000 ) ) ;
#12 = FACE_OUTER_BOUND ( 'NONE', #132, .T. ) ;
#13 = EDGE_CURVE ( 'NONE', #16, #105, #74, .T. ) ;
#14 = ADVANCED_FACE ( 'NONE', ( #65 ), #68, .F. ) ;
#15 =( LENGTH_UNIT ( ) NAMED_UNIT ( * ) SI_UNIT ( .MILLI., .METRE. ) );
#16 = VERTEX_POINT ( 'NONE', #117 ) ;
#17 = AXIS2_PLACEMENT_3D ( 'NONE', #245, #35, #131 ) ;
#18 = CC_DESIGN_SECURITY_CLASSIFICATION ( #99, ( #144 ) ) ;
#19 = EDGE_LOOP ( 'NONE', ( #187, #60, #139, #190 ) ) ;
#20 = DIRECTION ( 'NONE',  ( -0.000000000000000000, -0.000000000000000000, -1.000000000000000000 ) ) ;
#21 = APPLICATION_PROTOCOL_DEFINITION ( 'international standard', 'config_control_design', 1994, #267 ) ;
#22 = ORIENTED_EDGE ( 'NONE', *, *, #100, .T. ) ;
#23 = PERSON_AND_ORGANIZATION ( #162, #4 ) ;
#24 = ORIENTED_EDGE ( 'NONE', *, *, #84, .F. ) ;
#25 = MANIFOLD_SOLID_BREP ( 'Zaoblit1', #201 ) ;
#26 = EDGE_LOOP ( 'NONE', ( #91, #80 ) ) ;
#27 = EDGE_CURVE ( 'NONE', #158, #115, #130, .T. ) ;
#28 = DIRECTION ( 'NONE',  ( -1.000000000000000000, 0.000000000000000000, 0.000000000000000000 ) ) ;
#29 = LINE ( 'NONE', #54, #120 ) ;
#30 = DIRECTION ( 'NONE',  ( -0.000000000000000000, -0.000000000000000000, -1.000000000000000000 ) ) ;
#31 = EDGE_CURVE ( 'NONE', #105, #16, #212, .T. ) ;
#32 = CYLINDRICAL_SURFACE ( 'NONE', #93, 20.00000000000000000 ) ;
#33 = CIRCLE ( 'NONE', #259, 0.2000000000000005107 ) ;
#34 = ADVANCED_FACE ( 'NONE', ( #45 ), #106, .F. ) ;
#35 = DIRECTION ( 'NONE',  ( 0.000000000000000000, 0.000000000000000000, 1.000000000000000000 ) ) ;
#36 = ORIENTED_EDGE ( 'NONE', *, *, #302, .T. ) ;
#37 = CARTESIAN_POINT ( 'NONE',  ( -16.00000000000000000, 0.000000000000000000, 260.0000000000000000 ) ) ;
#38 = CIRCLE ( 'NONE', #214, 16.19999999999999929 ) ;
#39 = CARTESIAN_POINT ( 'NONE',  ( 0.000000000000000000, 0.000000000000000000, 10.19999999999998685 ) ) ;
#40 = EDGE_CURVE ( 'NONE', #250, #301, #289, .T. ) ;
#41 = PERSON_AND_ORGANIZATION ( #162, #4 ) ;
#42 = DESIGN_CONTEXT ( 'detailed design', #267, 'design' ) ;
#43 = CARTESIAN_POINT ( 'NONE',  ( 0.000000000000000000, 0.000000000000000000, 10.19999999999998685 ) ) ;
#44 = EDGE_CURVE ( 'NONE', #170, #92, #299, .T. ) ;
#45 = FACE_OUTER_BOUND ( 'NONE', #151, .T. ) ;
#46 = CARTESIAN_POINT ( 'NONE',  ( 0.000000000000000000, 0.000000000000000000, 260.0000000000000000 ) ) ;
#47 = DIRECTION ( 'NONE',  ( 1.000000000000000000, 0.000000000000000000, 0.000000000000000000 ) ) ;
#48 = DIRECTION ( 'NONE',  ( 1.000000000000000000, 0.000000000000000000, -0.000000000000000000 ) ) ;
#49 = ADVANCED_FACE ( 'NONE', ( #118 ), #254, .T. ) ;
#50 = LINE ( 'NONE', #145, #57 ) ;
#51 = CARTESIAN_POINT ( 'NONE',  ( 0.000000000000000000, 0.000000000000000000, 260.0000000000000000 ) ) ;
#52 = AXIS2_PLACEMENT_3D ( 'NONE', #147, #290, #48 ) ;
#53 = DIRECTION ( 'NONE',  ( -0.000000000000000000, -0.000000000000000000, -1.000000000000000000 ) ) ;
#54 = CARTESIAN_POINT ( 'NONE',  ( -20.00000000000000000, 0.000000000000000000, 10.00000000000000000 ) ) ;
#55 = EDGE_LOOP ( 'NONE', ( #89, #307, #22, #135 ) ) ;
#56 = ORIENTED_EDGE ( 'NONE', *, *, #252, .T. ) ;
#57 = VECTOR ( 'NONE', #213, 1000.000000000000000 ) ;
#58 = ADVANCED_FACE ( 'NONE', ( #204 ), #262, .T. ) ;
#59 = DIRECTION ( 'NONE',  ( 1.000000000000000000, 0.000000000000000000, 0.000000000000000000 ) ) ;
#60 = ORIENTED_EDGE ( 'NONE', *, *, #226, .T. ) ;
#61 = PERSON_AND_ORGANIZATION_ROLE ( 'creator' ) ;
#62 = ORIENTED_EDGE ( 'NONE', *, *, #256, .T. ) ;
#63 = ORIENTED_EDGE ( 'NONE', *, *, #100, .F. ) ;
#64 = DIRECTION ( 'NONE',  ( 1.000000000000000000, 0.000000000000000000, 0.000000000000000000 ) ) ;
#65 = FACE_OUTER_BOUND ( 'NONE', #55, .T. ) ;
#66 = DIRECTION ( 'NONE',  ( 1.000000000000000000, 0.000000000000000000, 0.000000000000000000 ) ) ;
#67 = LINE ( 'NONE', #95, #279 ) ;
#68 = TOROIDAL_SURFACE ( 'NONE', #263, 16.19999999999999929, 0.2000000000000000111 ) ;
#69 = CARTESIAN_POINT ( 'NONE',  ( 20.00000000000000000, 2.449293598294706513E-15, 0.000000000000000000 ) ) ;
#70 = FACE_BOUND ( 'NONE', #278, .T. ) ;
#71 = LOCAL_TIME ( 11, 29, 38.00000000000000000, #298 ) ;
#72 = DIRECTION ( 'NONE',  ( 0.000000000000000000, 0.000000000000000000, 1.000000000000000000 ) ) ;
#73 = CC_DESIGN_PERSON_AND_ORGANIZATION_ASSIGNMENT ( #178, #268, ( #197 ) ) ;
#74 = CIRCLE ( 'NONE', #202, 20.00000000000000000 ) ;
#75 = DIRECTION ( 'NONE',  ( 0.000000000000000000, 0.000000000000000000, 1.000000000000000000 ) ) ;
#76 = AXIS2_PLACEMENT_3D ( 'NONE', #215, #192, #217 ) ;
#77 =( NAMED_UNIT ( * ) SI_UNIT ( $, .STERADIAN. ) SOLID_ANGLE_UNIT ( ) );
#78 = ORIENTED_EDGE ( 'NONE', *, *, #31, .F. ) ;
#79 = CALENDAR_DATE ( 2022, 7, 7 ) ;
#80 = ORIENTED_EDGE ( 'NONE', *, *, #40, .T. ) ;
#81 = COORDINATED_UNIVERSAL_TIME_OFFSET ( 1, 0, .AHEAD. ) ;
#82 = CC_DESIGN_DATE_AND_TIME_ASSIGNMENT ( #90, #112, ( #99 ) ) ;
#83 = DIRECTION ( 'NONE',  ( 0.000000000000000000, 0.000000000000000000, 1.000000000000000000 ) ) ;
#84 = EDGE_CURVE ( 'NONE', #115, #158, #240, .T. ) ;
#85 = CALENDAR_DATE ( 2022, 7, 7 ) ;
#86 = ORIENTED_EDGE ( 'NONE', *, *, #31, .T. ) ;
#87 = CARTESIAN_POINT ( 'NONE',  ( 0.000000000000000000, 0.000000000000000000, 0.000000000000000000 ) ) ;
#88 = LOCAL_TIME ( 11, 29, 38.00000000000000000, #163 ) ;
#89 = ORIENTED_EDGE ( 'NONE', *, *, #210, .F. ) ;
#90 = DATE_AND_TIME ( #188, #191 ) ;
#91 = ORIENTED_EDGE ( 'NONE', *, *, #154, .T. ) ;
#92 = VERTEX_POINT ( 'NONE', #8 ) ;
#93 = AXIS2_PLACEMENT_3D ( 'NONE', #94, #146, #121 ) ;
#94 = CARTESIAN_POINT ( 'NONE',  ( 0.000000000000000000, 0.000000000000000000, 10.00000000000000000 ) ) ;
#95 = CARTESIAN_POINT ( 'NONE',  ( 20.00000000000000000, 2.449293598294706513E-15, 10.00000000000000000 ) ) ;
#96 = CARTESIAN_POINT ( 'NONE',  ( 0.000000000000000000, 0.000000000000000000, 10.19999999999998685 ) ) ;
#97 = VECTOR ( 'NONE', #20, 1000.000000000000000 ) ;
#98 = DIRECTION ( 'NONE',  ( -1.000000000000000000, 0.000000000000000000, 0.000000000000000000 ) ) ;
#99 = SECURITY_CLASSIFICATION ( '', '', #157 ) ;
#100 = EDGE_CURVE ( 'NONE', #158, #272, #33, .T. ) ;
#101 = MECHANICAL_CONTEXT ( 'NONE', #176, 'mechanical' ) ;
#102 = CIRCLE ( 'NONE', #76, 0.1999999999999987899 ) ;
#103 = LOCAL_TIME ( 11, 29, 38.00000000000000000, #81 ) ;
#104 = CALENDAR_DATE ( 2022, 7, 7 ) ;
#105 = VERTEX_POINT ( 'NONE', #257 ) ;
#106 = TOROIDAL_SURFACE ( 'NONE', #114, 16.19999999999999929, 0.2000000000000000111 ) ;
#107 =( NAMED_UNIT ( * ) PLANE_ANGLE_UNIT ( ) SI_UNIT ( $, .RADIAN. ) );
#108 = ORIENTED_EDGE ( 'NONE', *, *, #154, .F. ) ;
#109 = PLANE ( 'NONE',  #17 ) ;
#110 = ADVANCED_FACE ( 'NONE', ( #70, #194 ), #291, .T. ) ;
#111 = DIRECTION ( 'NONE',  ( -0.000000000000000000, -0.000000000000000000, -1.000000000000000000 ) ) ;
#112 = DATE_TIME_ROLE ( 'classification_date' ) ;
#113 = DIRECTION ( 'NONE',  ( 0.000000000000000000, 0.000000000000000000, 1.000000000000000000 ) ) ;
#114 = AXIS2_PLACEMENT_3D ( 'NONE', #39, #113, #251 ) ;
#115 = VERTEX_POINT ( 'NONE', #122 ) ;
#116 = DATE_AND_TIME ( #85, #220 ) ;
#117 = CARTESIAN_POINT ( 'NONE',  ( 20.00000000000000000, 2.449293598294706513E-15, 10.00000000000000000 ) ) ;
#118 = FACE_OUTER_BOUND ( 'NONE', #284, .T. ) ;
#119 = ORIENTED_EDGE ( 'NONE', *, *, #287, .F. ) ;
#120 = VECTOR ( 'NONE', #53, 1000.000000000000000 ) ;
#121 = DIRECTION ( 'NONE',  ( -1.000000000000000000, 0.000000000000000000, 0.000000000000000000 ) ) ;
#122 = CARTESIAN_POINT ( 'NONE',  ( -16.00000000000000000, 0.000000000000000000, 10.19999999999998685 ) ) ;
#123 = DIRECTION ( 'NONE',  ( 1.000000000000000000, 0.000000000000000000, 0.000000000000000000 ) ) ;
#124 = EDGE_CURVE ( 'NONE', #250, #158, #50, .T. ) ;
#125 = AXIS2_PLACEMENT_3D ( 'NONE', #164, #285, #253 ) ;
#126 = CARTESIAN_POINT ( 'NONE',  ( 16.19999999999999929, 0.000000000000000000, 9.999999999999992895 ) ) ;
#127 = PERSON_AND_ORGANIZATION ( #162, #4 ) ;
#128 = FACE_OUTER_BOUND ( 'NONE', #19, .T. ) ;
#129 = ORIENTED_EDGE ( 'NONE', *, *, #124, .T. ) ;
#130 = CIRCLE ( 'NONE', #242, 16.00000000000000000 ) ;
#131 = DIRECTION ( 'NONE',  ( 1.000000000000000000, 0.000000000000000000, -0.000000000000000000 ) ) ;
#132 = EDGE_LOOP ( 'NONE', ( #230, #228 ) ) ;
#133 = ADVANCED_FACE ( 'NONE', ( #237 ), #32, .T. ) ;
#134 = APPROVAL_ROLE ( '' ) ;
#135 = ORIENTED_EDGE ( 'NONE', *, *, #302, .F. ) ;
#136 = APPROVAL_STATUS ( 'not_yet_approved' ) ;
#137 = EDGE_LOOP ( 'NONE', ( #166, #129, #269, #119 ) ) ;
#138 = AXIS2_PLACEMENT_3D ( 'NONE', #141, #231, #209 ) ;
#139 = ORIENTED_EDGE ( 'NONE', *, *, #44, .T. ) ;
#140 = APPROVAL_STATUS ( 'not_yet_approved' ) ;
#141 = CARTESIAN_POINT ( 'NONE',  ( 0.000000000000000000, 0.000000000000000000, 260.0000000000000000 ) ) ;
#142 = ORIENTED_EDGE ( 'NONE', *, *, #173, .T. ) ;
#143 = CARTESIAN_POINT ( 'NONE',  ( 0.000000000000000000, 0.000000000000000000, 10.00000000000000000 ) ) ;
#144 = PRODUCT_DEFINITION_FORMATION_WITH_SPECIFIED_SOURCE ( 'LIBOVOLNÝ', '', #197, .NOT_KNOWN. ) ;
#145 = CARTESIAN_POINT ( 'NONE',  ( 16.00000000000000000, 1.959434878635765131E-15, 260.0000000000000000 ) ) ;
#146 = DIRECTION ( 'NONE',  ( -0.000000000000000000, -0.000000000000000000, -1.000000000000000000 ) ) ;
#147 = CARTESIAN_POINT ( 'NONE',  ( 0.000000000000000000, 0.000000000000000000, 10.00000000000000000 ) ) ;
#148 = PRODUCT_DEFINITION_SHAPE ( 'NONE', 'NONE',  #198 ) ;
#149 = APPROVAL_PERSON_ORGANIZATION ( #127, #203, #300 ) ;
#150 = DIRECTION ( 'NONE',  ( -0.000000000000000000, -0.000000000000000000, -1.000000000000000000 ) ) ;
#151 = EDGE_LOOP ( 'NONE', ( #24, #3, #6, #63 ) ) ;
#152 = CC_DESIGN_PERSON_AND_ORGANIZATION_ASSIGNMENT ( #41, #246, ( #99 ) ) ;
#153 = PERSON_AND_ORGANIZATION ( #162, #4 ) ;
#154 = EDGE_CURVE ( 'NONE', #301, #250, #264, .T. ) ;
#155 = CC_DESIGN_PERSON_AND_ORGANIZATION_ASSIGNMENT ( #23, #281, ( #144 ) ) ;
#156 = CARTESIAN_POINT ( 'NONE',  ( 0.000000000000000000, 0.000000000000000000, 0.000000000000000000 ) ) ;
#157 = SECURITY_CLASSIFICATION_LEVEL ( 'unclassified' ) ;
#158 = VERTEX_POINT ( 'NONE', #261 ) ;
#159 = AXIS2_PLACEMENT_3D ( 'NONE', #51, #169, #98 ) ;
#160 = PERSON_AND_ORGANIZATION ( #162, #4 ) ;
#161 = DIRECTION ( 'NONE',  ( 1.000000000000000000, 0.000000000000000000, 0.000000000000000000 ) ) ;
#162 = PERSON ( 'NEURÈENÝ', 'NEURÈENÝ', 'NEURÈENÝ', ('NEURÈENÝ'), ('NEURÈENÝ'), ('NEURÈENÝ') ) ;
#163 = COORDINATED_UNIVERSAL_TIME_OFFSET ( 1, 0, .AHEAD. ) ;
#164 = CARTESIAN_POINT ( 'NONE',  ( 0.000000000000000000, 0.000000000000000000, 10.00000000000000000 ) ) ;
#165 = AXIS2_PLACEMENT_3D ( 'NONE', #87, #234, #66 ) ;
#166 = ORIENTED_EDGE ( 'NONE', *, *, #40, .F. ) ;
#167 = CARTESIAN_POINT ( 'NONE',  ( 0.000000000000000000, 0.000000000000000000, 10.19999999999998685 ) ) ;
#168 = DIRECTION ( 'NONE',  ( 1.000000000000000000, 0.000000000000000000, 0.000000000000000000 ) ) ;
#169 = DIRECTION ( 'NONE',  ( -0.000000000000000000, -0.000000000000000000, -1.000000000000000000 ) ) ;
#170 = VERTEX_POINT ( 'NONE', #69 ) ;
#171 = CIRCLE ( 'NONE', #273, 16.19999999999999929 ) ;
#172 = DIRECTION ( 'NONE',  ( 0.000000000000000000, 0.000000000000000000, 1.000000000000000000 ) ) ;
#173 = EDGE_CURVE ( 'NONE', #272, #222, #38, .T. ) ;
#174 = CARTESIAN_POINT ( 'NONE',  ( 16.00000000000000000, 1.959434878635765131E-15, 260.0000000000000000 ) ) ;
#175 = DIRECTION ( 'NONE',  ( -1.000000000000000000, 0.000000000000000000, 0.000000000000000000 ) ) ;
#176 = APPLICATION_CONTEXT ( 'configuration controlled 3d designs of mechanical parts and assemblies' ) ;
#177 = ADVANCED_BREP_SHAPE_REPRESENTATION ( '20ac', ( #25, #286 ), #292 ) ;
#178 = PERSON_AND_ORGANIZATION ( #162, #4 ) ;
#179 = DATE_AND_TIME ( #79, #71 ) ;
#180 = APPLICATION_PROTOCOL_DEFINITION ( 'international standard', 'config_control_design', 1994, #176 ) ;
#181 = AXIS2_PLACEMENT_3D ( 'NONE', #46, #235, #28 ) ;
#182 = DATE_AND_TIME ( #104, #103 ) ;
#183 = ORIENTED_EDGE ( 'NONE', *, *, #84, .T. ) ;
#184 = APPROVAL_ROLE ( '' ) ;
#185 = CARTESIAN_POINT ( 'NONE',  ( 0.000000000000000000, 0.000000000000000000, 10.00000000000000000 ) ) ;
#186 = PERSON_AND_ORGANIZATION_ROLE ( 'creator' ) ;
#187 = ORIENTED_EDGE ( 'NONE', *, *, #13, .F. ) ;
#188 = CALENDAR_DATE ( 2022, 7, 7 ) ;
#189 = ORIENTED_EDGE ( 'NONE', *, *, #13, .T. ) ;
#190 = ORIENTED_EDGE ( 'NONE', *, *, #252, .F. ) ;
#191 = LOCAL_TIME ( 11, 29, 38.00000000000000000, #208 ) ;
#192 = DIRECTION ( 'NONE',  ( 1.224646799147353207E-16, 1.000000000000000000, -0.000000000000000000 ) ) ;
#193 = DIRECTION ( 'NONE',  ( 0.000000000000000000, 0.000000000000000000, 1.000000000000000000 ) ) ;
#194 = FACE_OUTER_BOUND ( 'NONE', #7, .T. ) ;
#195 = CC_DESIGN_PERSON_AND_ORGANIZATION_ASSIGNMENT ( #249, #186, ( #144 ) ) ;
#196 = DIRECTION ( 'NONE',  ( 0.000000000000000000, 0.000000000000000000, -1.000000000000000000 ) ) ;
#197 = PRODUCT ( '20ac', '20ac', '', ( #101 ) ) ;
#198 = PRODUCT_DEFINITION ( 'NEZNÁMÝ', '', #144, #42 ) ;
#199 = LINE ( 'NONE', #37, #97 ) ;
#200 = APPROVAL_DATE_TIME ( #182, #203 ) ;
#201 = CLOSED_SHELL ( 'NONE', ( #34, #58, #270, #133, #110, #239, #49, #283, #14 ) ) ;
#202 = AXIS2_PLACEMENT_3D ( 'NONE', #185, #282, #205 ) ;
#203 = APPROVAL ( #221, 'NEURÈENÝ' ) ;
#204 = FACE_OUTER_BOUND ( 'NONE', #137, .T. ) ;
#205 = DIRECTION ( 'NONE',  ( 1.000000000000000000, 0.000000000000000000, 0.000000000000000000 ) ) ;
#206 = AXIS2_PLACEMENT_3D ( 'NONE', #96, #193, #168 ) ;
#207 = CC_DESIGN_APPROVAL ( #218, ( #99 ) ) ;
#208 = COORDINATED_UNIVERSAL_TIME_OFFSET ( 1, 0, .AHEAD. ) ;
#209 = DIRECTION ( 'NONE',  ( 1.000000000000000000, 0.000000000000000000, 0.000000000000000000 ) ) ;
#210 = EDGE_CURVE ( 'NONE', #115, #222, #102, .T. ) ;
#211 = ORIENTED_EDGE ( 'NONE', *, *, #124, .F. ) ;
#212 = CIRCLE ( 'NONE', #125, 20.00000000000000000 ) ;
#213 = DIRECTION ( 'NONE',  ( -0.000000000000000000, -0.000000000000000000, -1.000000000000000000 ) ) ;
#214 = AXIS2_PLACEMENT_3D ( 'NONE', #143, #30, #123 ) ;
#215 = CARTESIAN_POINT ( 'NONE',  ( -16.19999999999999929, 1.983927814618711846E-15, 10.19999999999998685 ) ) ;
#216 = CARTESIAN_POINT ( 'NONE',  ( -16.19999999999999929, 1.983927814618711846E-15, 9.999999999999992895 ) ) ;
#217 = DIRECTION ( 'NONE',  ( -1.000000000000000000, 1.224646799147353947E-16, 0.000000000000000000 ) ) ;
#218 = APPROVAL ( #140, 'NEURÈENÝ' ) ;
#219 = CARTESIAN_POINT ( 'NONE',  ( -16.00000000000000000, 0.000000000000000000, 260.0000000000000000 ) ) ;
#220 = LOCAL_TIME ( 11, 29, 38.00000000000000000, #229 ) ;
#221 = APPROVAL_STATUS ( 'not_yet_approved' ) ;
#222 = VERTEX_POINT ( 'NONE', #216 ) ;
#223 = FACE_OUTER_BOUND ( 'NONE', #26, .T. ) ;
#224 = CARTESIAN_POINT ( 'NONE',  ( 0.000000000000000000, 0.000000000000000000, 10.00000000000000000 ) ) ;
#225 = DIRECTION ( 'NONE',  ( 1.000000000000000000, 0.000000000000000000, 0.000000000000000000 ) ) ;
#226 = EDGE_CURVE ( 'NONE', #16, #170, #67, .T. ) ;
#227 = SHAPE_DEFINITION_REPRESENTATION ( #148, #177 ) ;
#228 = ORIENTED_EDGE ( 'NONE', *, *, #44, .F. ) ;
#229 = COORDINATED_UNIVERSAL_TIME_OFFSET ( 1, 0, .AHEAD. ) ;
#230 = ORIENTED_EDGE ( 'NONE', *, *, #256, .F. ) ;
#231 = DIRECTION ( 'NONE',  ( 0.000000000000000000, 0.000000000000000000, 1.000000000000000000 ) ) ;
#232 = AXIS2_PLACEMENT_3D ( 'NONE', #156, #75, #225 ) ;
#233 = CC_DESIGN_APPROVAL ( #244, ( #144 ) ) ;
#234 = DIRECTION ( 'NONE',  ( 0.000000000000000000, 0.000000000000000000, 1.000000000000000000 ) ) ;
#235 = DIRECTION ( 'NONE',  ( -0.000000000000000000, -0.000000000000000000, -1.000000000000000000 ) ) ;
#236 = CARTESIAN_POINT ( 'NONE',  ( 0.000000000000000000, 0.000000000000000000, 0.000000000000000000 ) ) ;
#237 = FACE_OUTER_BOUND ( 'NONE', #275, .T. ) ;
#238 = CARTESIAN_POINT ( 'NONE',  ( 0.000000000000000000, 0.000000000000000000, 260.0000000000000000 ) ) ;
#239 = ADVANCED_FACE ( 'NONE', ( #12 ), #293, .F. ) ;
#240 = CIRCLE ( 'NONE', #206, 16.00000000000000000 ) ;
#241 = CC_DESIGN_APPROVAL ( #203, ( #198 ) ) ;
#242 = AXIS2_PLACEMENT_3D ( 'NONE', #43, #305, #161 ) ;
#243 = CARTESIAN_POINT ( 'NONE',  ( 0.000000000000000000, 0.000000000000000000, 10.00000000000000000 ) ) ;
#244 = APPROVAL ( #136, 'NEURÈENÝ' ) ;
#245 = CARTESIAN_POINT ( 'NONE',  ( 0.000000000000000000, 0.000000000000000000, 260.0000000000000000 ) ) ;
#246 = PERSON_AND_ORGANIZATION_ROLE ( 'classification_officer' ) ;
#247 = AXIS2_PLACEMENT_3D ( 'NONE', #236, #72, #255 ) ;
#248 = DIRECTION ( 'NONE',  ( 0.000000000000000000, 0.000000000000000000, 1.000000000000000000 ) ) ;
#249 = PERSON_AND_ORGANIZATION ( #162, #4 ) ;
#250 = VERTEX_POINT ( 'NONE', #174 ) ;
#251 = DIRECTION ( 'NONE',  ( 1.000000000000000000, 0.000000000000000000, 0.000000000000000000 ) ) ;
#252 = EDGE_CURVE ( 'NONE', #105, #92, #29, .T. ) ;
#253 = DIRECTION ( 'NONE',  ( 1.000000000000000000, 0.000000000000000000, 0.000000000000000000 ) ) ;
#254 = CYLINDRICAL_SURFACE ( 'NONE', #181, 16.00000000000000000 ) ;
#255 = DIRECTION ( 'NONE',  ( 1.000000000000000000, 0.000000000000000000, -0.000000000000000000 ) ) ;
#256 = EDGE_CURVE ( 'NONE', #92, #170, #295, .T. ) ;
#257 = CARTESIAN_POINT ( 'NONE',  ( -20.00000000000000000, 0.000000000000000000, 10.00000000000000000 ) ) ;
#258 = PRODUCT_RELATED_PRODUCT_CATEGORY ( 'detail', '', ( #197 ) ) ;
#259 = AXIS2_PLACEMENT_3D ( 'NONE', #10, #288, #196 ) ;
#260 = APPROVAL_PERSON_ORGANIZATION ( #160, #218, #184 ) ;
#261 = CARTESIAN_POINT ( 'NONE',  ( 16.00000000000000000, 1.959434878635765131E-15, 10.19999999999998685 ) ) ;
#262 = CYLINDRICAL_SURFACE ( 'NONE', #159, 16.00000000000000000 ) ;
#263 = AXIS2_PLACEMENT_3D ( 'NONE', #167, #248, #64 ) ;
#264 = CIRCLE ( 'NONE', #9, 16.00000000000000000 ) ;
#265 = UNCERTAINTY_MEASURE_WITH_UNIT (LENGTH_MEASURE( 1.000000000000000082E-05 ), #15, 'distance_accuracy_value', 'NONE');
#266 = APPROVAL_PERSON_ORGANIZATION ( #153, #244, #134 ) ;
#267 = APPLICATION_CONTEXT ( 'configuration controlled 3d designs of mechanical parts and assemblies' ) ;
#268 = PERSON_AND_ORGANIZATION_ROLE ( 'design_owner' ) ;
#269 = ORIENTED_EDGE ( 'NONE', *, *, #27, .T. ) ;
#270 = ADVANCED_FACE ( 'NONE', ( #128 ), #274, .T. ) ;
#271 = DATE_TIME_ROLE ( 'creation_date' ) ;
#272 = VERTEX_POINT ( 'NONE', #126 ) ;
#273 = AXIS2_PLACEMENT_3D ( 'NONE', #224, #111, #59 ) ;
#274 = CYLINDRICAL_SURFACE ( 'NONE', #2, 20.00000000000000000 ) ;
#275 = EDGE_LOOP ( 'NONE', ( #280, #78, #56, #62 ) ) ;
#276 = PERSON_AND_ORGANIZATION ( #162, #4 ) ;
#277 = APPROVAL_DATE_TIME ( #304, #244 ) ;
#278 = EDGE_LOOP ( 'NONE', ( #142, #36 ) ) ;
#279 = VECTOR ( 'NONE', #11, 1000.000000000000000 ) ;
#280 = ORIENTED_EDGE ( 'NONE', *, *, #226, .F. ) ;
#281 = PERSON_AND_ORGANIZATION_ROLE ( 'design_supplier' ) ;
#282 = DIRECTION ( 'NONE',  ( 0.000000000000000000, 0.000000000000000000, 1.000000000000000000 ) ) ;
#283 = ADVANCED_FACE ( 'NONE', ( #223 ), #109, .T. ) ;
#284 = EDGE_LOOP ( 'NONE', ( #211, #108, #297, #183 ) ) ;
#285 = DIRECTION ( 'NONE',  ( 0.000000000000000000, 0.000000000000000000, 1.000000000000000000 ) ) ;
#286 = AXIS2_PLACEMENT_3D ( 'NONE', #303, #83, #294 ) ;
#287 = EDGE_CURVE ( 'NONE', #301, #115, #199, .T. ) ;
#288 = DIRECTION ( 'NONE',  ( 0.000000000000000000, -1.000000000000000000, 0.000000000000000000 ) ) ;
#289 = CIRCLE ( 'NONE', #138, 16.00000000000000000 ) ;
#290 = DIRECTION ( 'NONE',  ( 0.000000000000000000, 0.000000000000000000, 1.000000000000000000 ) ) ;
#291 = PLANE ( 'NONE',  #52 ) ;
#292 =( GEOMETRIC_REPRESENTATION_CONTEXT ( 3 ) GLOBAL_UNCERTAINTY_ASSIGNED_CONTEXT ( ( #265 ) ) GLOBAL_UNIT_ASSIGNED_CONTEXT ( ( #15, #107, #77 ) ) REPRESENTATION_CONTEXT ( 'NONE', 'WORKASPACE' ) );
#293 = PLANE ( 'NONE',  #247 ) ;
#294 = DIRECTION ( 'NONE',  ( 1.000000000000000000, 0.000000000000000000, 0.000000000000000000 ) ) ;
#295 = CIRCLE ( 'NONE', #232, 20.00000000000000000 ) ;
#296 = CC_DESIGN_PERSON_AND_ORGANIZATION_ASSIGNMENT ( #276, #61, ( #198 ) ) ;
#297 = ORIENTED_EDGE ( 'NONE', *, *, #287, .T. ) ;
#298 = COORDINATED_UNIVERSAL_TIME_OFFSET ( 1, 0, .AHEAD. ) ;
#299 = CIRCLE ( 'NONE', #165, 20.00000000000000000 ) ;
#300 = APPROVAL_ROLE ( '' ) ;
#301 = VERTEX_POINT ( 'NONE', #219 ) ;
#302 = EDGE_CURVE ( 'NONE', #222, #272, #171, .T. ) ;
#303 = CARTESIAN_POINT ( 'NONE',  ( 0.000000000000000000, 0.000000000000000000, 0.000000000000000000 ) ) ;
#304 = DATE_AND_TIME ( #306, #88 ) ;
#305 = DIRECTION ( 'NONE',  ( 0.000000000000000000, 0.000000000000000000, 1.000000000000000000 ) ) ;
#306 = CALENDAR_DATE ( 2022, 7, 7 ) ;
#307 = ORIENTED_EDGE ( 'NONE', *, *, #27, .F. ) ;
ENDSEC;
END-ISO-10303-21;
