ISO-10303-21;
HEADER;
FILE_DESCRIPTION (( 'STEP AP203' ),
    '1' );
FILE_NAME ('bea6.STEP',
    '2023-02-12T10:41:09',
    ( '' ),
    ( '' ),
    'SwSTEP 2.0',
    'SolidWorks 2019',
    '' );
FILE_SCHEMA (( 'CONFIG_CONTROL_DESIGN' ));
ENDSEC;

DATA;
#1 = AXIS2_PLACEMENT_3D ( 'NONE', #227, #7, #174 ) ;
#2 = EDGE_CURVE ( 'NONE', #111, #150, #232, .T. ) ;
#3 = SECURITY_CLASSIFICATION_LEVEL ( 'unclassified' ) ;
#4 = ADVANCED_FACE ( 'NONE', ( #196 ), #17, .T. ) ;
#5 = DIRECTION ( 'NONE',  ( 1.000000000000000000, 0.000000000000000000, -0.000000000000000000 ) ) ;
#6 = DIRECTION ( 'NONE',  ( -0.000000000000000000, -0.000000000000000000, -1.000000000000000000 ) ) ;
#7 = DIRECTION ( 'NONE',  ( 0.000000000000000000, 0.000000000000000000, 1.000000000000000000 ) ) ;
#8 = APPLICATION_PROTOCOL_DEFINITION ( 'international standard', 'config_control_design', 1994, #151 ) ;
#9 = ORIENTED_EDGE ( 'NONE', *, *, #203, .T. ) ;
#10 = VERTEX_POINT ( 'NONE', #186 ) ;
#11 = EDGE_CURVE ( 'NONE', #10, #146, #141, .T. ) ;
#12 = CIRCLE ( 'NONE', #33, 12.00000000000000178 ) ;
#13 = CLOSED_SHELL ( 'NONE', ( #241, #211, #4, #129, #59, #80, #64 ) ) ;
#14 = ORIENTED_EDGE ( 'NONE', *, *, #217, .T. ) ;
#15 = PRODUCT_DEFINITION ( 'NEZNÁMÝ', '', #240, #84 ) ;
#16 = ORIENTED_EDGE ( 'NONE', *, *, #72, .F. ) ;
#17 = CYLINDRICAL_SURFACE ( 'NONE', #75, 12.00000000000000178 ) ;
#18 = CALENDAR_DATE ( 2023, 12, 2 ) ;
#19 = DIRECTION ( 'NONE',  ( 1.000000000000000000, 0.000000000000000000, 0.000000000000000000 ) ) ;
#20 = CIRCLE ( 'NONE', #212, 9.000000000000000000 ) ;
#21 = LINE ( 'NONE', #247, #235 ) ;
#22 = AXIS2_PLACEMENT_3D ( 'NONE', #113, #82, #218 ) ;
#23 = CARTESIAN_POINT ( 'NONE',  ( 0.000000000000000000, 0.000000000000000000, 7.000000000000000000 ) ) ;
#24 = DIRECTION ( 'NONE',  ( 0.000000000000000000, 0.000000000000000000, 1.000000000000000000 ) ) ;
#25 = DATE_TIME_ROLE ( 'creation_date' ) ;
#26 = CARTESIAN_POINT ( 'NONE',  ( 9.000000000000000000, 1.102182119232617714E-15, 250.0000000000000000 ) ) ;
#27 = APPROVAL_ROLE ( '' ) ;
#28 = MANIFOLD_SOLID_BREP ( 'Pøidat vysunutím3', #13 ) ;
#29 = AXIS2_PLACEMENT_3D ( 'NONE', #23, #102, #86 ) ;
#30 = PLANE ( 'NONE',  #199 ) ;
#31 = FACE_OUTER_BOUND ( 'NONE', #173, .T. ) ;
#32 = CARTESIAN_POINT ( 'NONE',  ( 0.000000000000000000, 0.000000000000000000, 250.0000000000000000 ) ) ;
#33 = AXIS2_PLACEMENT_3D ( 'NONE', #244, #71, #228 ) ;
#34 = PERSON_AND_ORGANIZATION_ROLE ( 'design_owner' ) ;
#35 = APPROVAL ( #243, 'NEURÈENÝ' ) ;
#36 = ORIENTED_EDGE ( 'NONE', *, *, #132, .F. ) ;
#37 = ORIENTED_EDGE ( 'NONE', *, *, #132, .T. ) ;
#38 = ORIENTED_EDGE ( 'NONE', *, *, #161, .F. ) ;
#39 = DIRECTION ( 'NONE',  ( 1.000000000000000000, 0.000000000000000000, -0.000000000000000000 ) ) ;
#40 = CALENDAR_DATE ( 2023, 12, 2 ) ;
#41 = LOCAL_TIME ( 11, 41, 9.000000000000000000, #51 ) ;
#42 = DIRECTION ( 'NONE',  ( -0.000000000000000000, -0.000000000000000000, -1.000000000000000000 ) ) ;
#43 = EDGE_CURVE ( 'NONE', #175, #150, #222, .T. ) ;
#44 = LOCAL_TIME ( 11, 41, 9.000000000000000000, #187 ) ;
#45 = CC_DESIGN_APPROVAL ( #185, ( #240 ) ) ;
#46 = DIRECTION ( 'NONE',  ( 1.000000000000000000, 0.000000000000000000, 0.000000000000000000 ) ) ;
#47 = CC_DESIGN_SECURITY_CLASSIFICATION ( #108, ( #240 ) ) ;
#48 = AXIS2_PLACEMENT_3D ( 'NONE', #63, #137, #223 ) ;
#49 =( NAMED_UNIT ( * ) PLANE_ANGLE_UNIT ( ) SI_UNIT ( $, .RADIAN. ) );
#50 = CARTESIAN_POINT ( 'NONE',  ( -9.000000000000000000, 0.000000000000000000, 250.0000000000000000 ) ) ;
#51 = COORDINATED_UNIVERSAL_TIME_OFFSET ( 1, 0, .AHEAD. ) ;
#52 = ORIENTED_EDGE ( 'NONE', *, *, #2, .T. ) ;
#53 = EDGE_LOOP ( 'NONE', ( #112, #251, #14, #225 ) ) ;
#54 = PRODUCT ( 'bea6', 'bea6', '', ( #249 ) ) ;
#55 = ORIENTED_EDGE ( 'NONE', *, *, #143, .F. ) ;
#56 = ORGANIZATION ( 'NEURÈENÝ', 'NEURÈENÝ', '' ) ;
#57 = DIRECTION ( 'NONE',  ( -1.000000000000000000, 0.000000000000000000, 0.000000000000000000 ) ) ;
#58 = CARTESIAN_POINT ( 'NONE',  ( 0.000000000000000000, 0.000000000000000000, 7.000000000000000000 ) ) ;
#59 = ADVANCED_FACE ( 'NONE', ( #77 ), #60, .F. ) ;
#60 = PLANE ( 'NONE',  #229 ) ;
#61 = FACE_OUTER_BOUND ( 'NONE', #53, .T. ) ;
#62 = COORDINATED_UNIVERSAL_TIME_OFFSET ( 1, 0, .AHEAD. ) ;
#63 = CARTESIAN_POINT ( 'NONE',  ( 0.000000000000000000, 0.000000000000000000, 250.0000000000000000 ) ) ;
#64 = ADVANCED_FACE ( 'NONE', ( #117 ), #101, .T. ) ;
#65 = DATE_TIME_ROLE ( 'classification_date' ) ;
#66 = SHAPE_DEFINITION_REPRESENTATION ( #238, #122 ) ;
#67 = CIRCLE ( 'NONE', #96, 12.00000000000000178 ) ;
#68 = DIRECTION ( 'NONE',  ( 0.000000000000000000, 0.000000000000000000, 1.000000000000000000 ) ) ;
#69 = APPLICATION_PROTOCOL_DEFINITION ( 'international standard', 'config_control_design', 1994, #114 ) ;
#70 = APPROVAL_DATE_TIME ( #125, #35 ) ;
#71 = DIRECTION ( 'NONE',  ( 0.000000000000000000, 0.000000000000000000, 1.000000000000000000 ) ) ;
#72 = EDGE_CURVE ( 'NONE', #234, #111, #20, .T. ) ;
#73 = APPROVAL_STATUS ( 'not_yet_approved' ) ;
#74 = ORIENTED_EDGE ( 'NONE', *, *, #194, .T. ) ;
#75 = AXIS2_PLACEMENT_3D ( 'NONE', #135, #42, #57 ) ;
#76 = ORIENTED_EDGE ( 'NONE', *, *, #143, .T. ) ;
#77 = FACE_OUTER_BOUND ( 'NONE', #128, .T. ) ;
#78 = PERSON_AND_ORGANIZATION ( #81, #56 ) ;
#79 = CALENDAR_DATE ( 2023, 12, 2 ) ;
#80 = ADVANCED_FACE ( 'NONE', ( #184 ), #254, .T. ) ;
#81 = PERSON ( 'NEURÈENÝ', 'NEURÈENÝ', 'NEURÈENÝ', ('NEURÈENÝ'), ('NEURÈENÝ'), ('NEURÈENÝ') ) ;
#82 = DIRECTION ( 'NONE',  ( 0.000000000000000000, 0.000000000000000000, 1.000000000000000000 ) ) ;
#83 = DIRECTION ( 'NONE',  ( 1.000000000000000000, 0.000000000000000000, 0.000000000000000000 ) ) ;
#84 = DESIGN_CONTEXT ( 'detailed design', #114, 'design' ) ;
#85 = PERSON_AND_ORGANIZATION_ROLE ( 'classification_officer' ) ;
#86 = DIRECTION ( 'NONE',  ( -1.000000000000000000, 0.000000000000000000, 0.000000000000000000 ) ) ;
#87 = PERSON_AND_ORGANIZATION ( #81, #56 ) ;
#88 = CARTESIAN_POINT ( 'NONE',  ( 0.000000000000000000, 0.000000000000000000, 7.000000000000000000 ) ) ;
#89 = APPROVAL_DATE_TIME ( #195, #172 ) ;
#90 = CARTESIAN_POINT ( 'NONE',  ( 0.000000000000000000, 0.000000000000000000, 0.000000000000000000 ) ) ;
#91 = PRODUCT_RELATED_PRODUCT_CATEGORY ( 'detail', '', ( #54 ) ) ;
#92 = CC_DESIGN_APPROVAL ( #172, ( #15 ) ) ;
#93 = CC_DESIGN_DATE_AND_TIME_ASSIGNMENT ( #164, #65, ( #108 ) ) ;
#94 = EDGE_LOOP ( 'NONE', ( #38, #36, #9, #154 ) ) ;
#95 = ORIENTED_EDGE ( 'NONE', *, *, #11, .T. ) ;
#96 = AXIS2_PLACEMENT_3D ( 'NONE', #170, #156, #19 ) ;
#97 = CC_DESIGN_PERSON_AND_ORGANIZATION_ASSIGNMENT ( #87, #226, ( #240 ) ) ;
#98 = AXIS2_PLACEMENT_3D ( 'NONE', #242, #182, #83 ) ;
#99 = CARTESIAN_POINT ( 'NONE',  ( 0.000000000000000000, 0.000000000000000000, 250.0000000000000000 ) ) ;
#100 = AXIS2_PLACEMENT_3D ( 'NONE', #58, #115, #131 ) ;
#101 = PLANE ( 'NONE',  #124 ) ;
#102 = DIRECTION ( 'NONE',  ( -0.000000000000000000, -0.000000000000000000, -1.000000000000000000 ) ) ;
#103 = EDGE_CURVE ( 'NONE', #234, #175, #118, .T. ) ;
#104 = DIRECTION ( 'NONE',  ( 0.000000000000000000, 0.000000000000000000, 1.000000000000000000 ) ) ;
#105 = DATE_AND_TIME ( #206, #167 ) ;
#106 = AXIS2_PLACEMENT_3D ( 'NONE', #32, #6, #145 ) ;
#107 = LOCAL_TIME ( 11, 41, 9.000000000000000000, #62 ) ;
#108 = SECURITY_CLASSIFICATION ( '', '', #3 ) ;
#109 = EDGE_LOOP ( 'NONE', ( #236, #253 ) ) ;
#110 = ORIENTED_EDGE ( 'NONE', *, *, #217, .F. ) ;
#111 = VERTEX_POINT ( 'NONE', #130 ) ;
#112 = ORIENTED_EDGE ( 'NONE', *, *, #11, .F. ) ;
#113 = CARTESIAN_POINT ( 'NONE',  ( 0.000000000000000000, 0.000000000000000000, 7.000000000000000000 ) ) ;
#114 = APPLICATION_CONTEXT ( 'configuration controlled 3d designs of mechanical parts and assemblies' ) ;
#115 = DIRECTION ( 'NONE',  ( 0.000000000000000000, 0.000000000000000000, 1.000000000000000000 ) ) ;
#116 = VECTOR ( 'NONE', #127, 1000.000000000000000 ) ;
#117 = FACE_OUTER_BOUND ( 'NONE', #197, .T. ) ;
#118 = LINE ( 'NONE', #26, #163 ) ;
#119 = FACE_BOUND ( 'NONE', #109, .T. ) ;
#120 = DIRECTION ( 'NONE',  ( -0.000000000000000000, -0.000000000000000000, -1.000000000000000000 ) ) ;
#121 = CC_DESIGN_PERSON_AND_ORGANIZATION_ASSIGNMENT ( #219, #85, ( #108 ) ) ;
#122 = ADVANCED_BREP_SHAPE_REPRESENTATION ( 'bea6', ( #28, #149 ), #248 ) ;
#123 = CARTESIAN_POINT ( 'NONE',  ( -12.00000000000000178, 0.000000000000000000, 7.000000000000000000 ) ) ;
#124 = AXIS2_PLACEMENT_3D ( 'NONE', #177, #24, #181 ) ;
#125 = DATE_AND_TIME ( #18, #44 ) ;
#126 =( NAMED_UNIT ( * ) SI_UNIT ( $, .STERADIAN. ) SOLID_ANGLE_UNIT ( ) );
#127 = DIRECTION ( 'NONE',  ( -0.000000000000000000, -0.000000000000000000, -1.000000000000000000 ) ) ;
#128 = EDGE_LOOP ( 'NONE', ( #239, #110 ) ) ;
#129 = ADVANCED_FACE ( 'NONE', ( #119, #190 ), #30, .T. ) ;
#130 = CARTESIAN_POINT ( 'NONE',  ( -9.000000000000000000, 0.000000000000000000, 250.0000000000000000 ) ) ;
#131 = DIRECTION ( 'NONE',  ( 1.000000000000000000, 0.000000000000000000, 0.000000000000000000 ) ) ;
#132 = EDGE_CURVE ( 'NONE', #146, #10, #178, .T. ) ;
#133 = COORDINATED_UNIVERSAL_TIME_OFFSET ( 1, 0, .AHEAD. ) ;
#134 = CARTESIAN_POINT ( 'NONE',  ( 9.000000000000000000, 1.102182119232617714E-15, 7.000000000000000000 ) ) ;
#135 = CARTESIAN_POINT ( 'NONE',  ( 0.000000000000000000, 0.000000000000000000, 7.000000000000000000 ) ) ;
#136 = PERSON_AND_ORGANIZATION ( #81, #56 ) ;
#137 = DIRECTION ( 'NONE',  ( -0.000000000000000000, -0.000000000000000000, -1.000000000000000000 ) ) ;
#138 = VECTOR ( 'NONE', #160, 1000.000000000000000 ) ;
#139 = EDGE_CURVE ( 'NONE', #201, #198, #67, .T. ) ;
#140 = DIRECTION ( 'NONE',  ( 0.000000000000000000, 0.000000000000000000, 1.000000000000000000 ) ) ;
#141 = CIRCLE ( 'NONE', #100, 12.00000000000000178 ) ;
#142 = PERSON_AND_ORGANIZATION ( #81, #56 ) ;
#143 = EDGE_CURVE ( 'NONE', #111, #234, #169, .T. ) ;
#144 = UNCERTAINTY_MEASURE_WITH_UNIT (LENGTH_MEASURE( 1.000000000000000082E-05 ), #147, 'distance_accuracy_value', 'NONE');
#145 = DIRECTION ( 'NONE',  ( -1.000000000000000000, 0.000000000000000000, 0.000000000000000000 ) ) ;
#146 = VERTEX_POINT ( 'NONE', #123 ) ;
#147 =( LENGTH_UNIT ( ) NAMED_UNIT ( * ) SI_UNIT ( .MILLI., .METRE. ) );
#148 = ORIENTED_EDGE ( 'NONE', *, *, #2, .F. ) ;
#149 = AXIS2_PLACEMENT_3D ( 'NONE', #90, #140, #191 ) ;
#150 = VERTEX_POINT ( 'NONE', #202 ) ;
#151 = APPLICATION_CONTEXT ( 'configuration controlled 3d designs of mechanical parts and assemblies' ) ;
#152 = EDGE_LOOP ( 'NONE', ( #37, #95 ) ) ;
#153 = CC_DESIGN_PERSON_AND_ORGANIZATION_ASSIGNMENT ( #142, #34, ( #54 ) ) ;
#154 = ORIENTED_EDGE ( 'NONE', *, *, #139, .T. ) ;
#155 = LOCAL_TIME ( 11, 41, 9.000000000000000000, #133 ) ;
#156 = DIRECTION ( 'NONE',  ( 0.000000000000000000, 0.000000000000000000, 1.000000000000000000 ) ) ;
#157 = DIRECTION ( 'NONE',  ( -0.000000000000000000, -0.000000000000000000, -1.000000000000000000 ) ) ;
#158 = DIRECTION ( 'NONE',  ( 1.000000000000000000, 0.000000000000000000, 0.000000000000000000 ) ) ;
#159 = APPROVAL_DATE_TIME ( #105, #185 ) ;
#160 = DIRECTION ( 'NONE',  ( -0.000000000000000000, -0.000000000000000000, -1.000000000000000000 ) ) ;
#161 = EDGE_CURVE ( 'NONE', #10, #198, #21, .T. ) ;
#162 = PERSON_AND_ORGANIZATION ( #81, #56 ) ;
#163 = VECTOR ( 'NONE', #157, 1000.000000000000000 ) ;
#164 = DATE_AND_TIME ( #40, #107 ) ;
#165 = CC_DESIGN_PERSON_AND_ORGANIZATION_ASSIGNMENT ( #136, #200, ( #240 ) ) ;
#166 = PERSON_AND_ORGANIZATION ( #81, #56 ) ;
#167 = LOCAL_TIME ( 11, 41, 9.000000000000000000, #224 ) ;
#168 = CC_DESIGN_PERSON_AND_ORGANIZATION_ASSIGNMENT ( #78, #237, ( #15 ) ) ;
#169 = CIRCLE ( 'NONE', #183, 9.000000000000000000 ) ;
#170 = CARTESIAN_POINT ( 'NONE',  ( 0.000000000000000000, 0.000000000000000000, 0.000000000000000000 ) ) ;
#171 = PERSON_AND_ORGANIZATION ( #81, #56 ) ;
#172 = APPROVAL ( #73, 'NEURÈENÝ' ) ;
#173 = EDGE_LOOP ( 'NONE', ( #16, #216, #213, #148 ) ) ;
#174 = DIRECTION ( 'NONE',  ( 1.000000000000000000, 0.000000000000000000, 0.000000000000000000 ) ) ;
#175 = VERTEX_POINT ( 'NONE', #134 ) ;
#176 = ORIENTED_EDGE ( 'NONE', *, *, #103, .F. ) ;
#177 = CARTESIAN_POINT ( 'NONE',  ( 0.000000000000000000, 0.000000000000000000, 250.0000000000000000 ) ) ;
#178 = CIRCLE ( 'NONE', #1, 12.00000000000000178 ) ;
#179 = CARTESIAN_POINT ( 'NONE',  ( 0.000000000000000000, 0.000000000000000000, 250.0000000000000000 ) ) ;
#180 = CARTESIAN_POINT ( 'NONE',  ( -12.00000000000000178, 0.000000000000000000, 7.000000000000000000 ) ) ;
#181 = DIRECTION ( 'NONE',  ( 1.000000000000000000, 0.000000000000000000, -0.000000000000000000 ) ) ;
#182 = DIRECTION ( 'NONE',  ( 0.000000000000000000, 0.000000000000000000, 1.000000000000000000 ) ) ;
#183 = AXIS2_PLACEMENT_3D ( 'NONE', #99, #209, #46 ) ;
#184 = FACE_OUTER_BOUND ( 'NONE', #252, .T. ) ;
#185 = APPROVAL ( #255, 'NEURÈENÝ' ) ;
#186 = CARTESIAN_POINT ( 'NONE',  ( 12.00000000000000178, 1.469576158976824144E-15, 7.000000000000000000 ) ) ;
#187 = COORDINATED_UNIVERSAL_TIME_OFFSET ( 1, 0, .AHEAD. ) ;
#188 = CARTESIAN_POINT ( 'NONE',  ( 12.00000000000000178, 1.469576158976824144E-15, 0.000000000000000000 ) ) ;
#189 = APPROVAL_PERSON_ORGANIZATION ( #166, #185, #246 ) ;
#190 = FACE_OUTER_BOUND ( 'NONE', #152, .T. ) ;
#191 = DIRECTION ( 'NONE',  ( 1.000000000000000000, 0.000000000000000000, 0.000000000000000000 ) ) ;
#192 = CC_DESIGN_APPROVAL ( #35, ( #108 ) ) ;
#193 = APPROVAL_PERSON_ORGANIZATION ( #162, #35, #27 ) ;
#194 = EDGE_CURVE ( 'NONE', #150, #175, #214, .T. ) ;
#195 = DATE_AND_TIME ( #210, #41 ) ;
#196 = FACE_OUTER_BOUND ( 'NONE', #94, .T. ) ;
#197 = EDGE_LOOP ( 'NONE', ( #76, #215 ) ) ;
#198 = VERTEX_POINT ( 'NONE', #188 ) ;
#199 = AXIS2_PLACEMENT_3D ( 'NONE', #88, #68, #5 ) ;
#200 = PERSON_AND_ORGANIZATION_ROLE ( 'design_supplier' ) ;
#201 = VERTEX_POINT ( 'NONE', #208 ) ;
#202 = CARTESIAN_POINT ( 'NONE',  ( -9.000000000000000000, 0.000000000000000000, 7.000000000000000000 ) ) ;
#203 = EDGE_CURVE ( 'NONE', #146, #201, #204, .T. ) ;
#204 = LINE ( 'NONE', #180, #138 ) ;
#205 = DIRECTION ( 'NONE',  ( 0.000000000000000000, 0.000000000000000000, 1.000000000000000000 ) ) ;
#206 = CALENDAR_DATE ( 2023, 12, 2 ) ;
#207 = APPROVAL_PERSON_ORGANIZATION ( #171, #172, #233 ) ;
#208 = CARTESIAN_POINT ( 'NONE',  ( -12.00000000000000178, 0.000000000000000000, 0.000000000000000000 ) ) ;
#209 = DIRECTION ( 'NONE',  ( 0.000000000000000000, 0.000000000000000000, 1.000000000000000000 ) ) ;
#210 = CALENDAR_DATE ( 2023, 12, 2 ) ;
#211 = ADVANCED_FACE ( 'NONE', ( #61 ), #221, .T. ) ;
#212 = AXIS2_PLACEMENT_3D ( 'NONE', #179, #104, #158 ) ;
#213 = ORIENTED_EDGE ( 'NONE', *, *, #43, .T. ) ;
#214 = CIRCLE ( 'NONE', #98, 9.000000000000000000 ) ;
#215 = ORIENTED_EDGE ( 'NONE', *, *, #72, .T. ) ;
#216 = ORIENTED_EDGE ( 'NONE', *, *, #103, .T. ) ;
#217 = EDGE_CURVE ( 'NONE', #198, #201, #12, .T. ) ;
#218 = DIRECTION ( 'NONE',  ( 1.000000000000000000, 0.000000000000000000, 0.000000000000000000 ) ) ;
#219 = PERSON_AND_ORGANIZATION ( #81, #56 ) ;
#220 = DATE_AND_TIME ( #79, #155 ) ;
#221 = CYLINDRICAL_SURFACE ( 'NONE', #29, 12.00000000000000178 ) ;
#222 = CIRCLE ( 'NONE', #22, 9.000000000000000000 ) ;
#223 = DIRECTION ( 'NONE',  ( -1.000000000000000000, 0.000000000000000000, 0.000000000000000000 ) ) ;
#224 = COORDINATED_UNIVERSAL_TIME_OFFSET ( 1, 0, .AHEAD. ) ;
#225 = ORIENTED_EDGE ( 'NONE', *, *, #203, .F. ) ;
#226 = PERSON_AND_ORGANIZATION_ROLE ( 'creator' ) ;
#227 = CARTESIAN_POINT ( 'NONE',  ( 0.000000000000000000, 0.000000000000000000, 7.000000000000000000 ) ) ;
#228 = DIRECTION ( 'NONE',  ( 1.000000000000000000, 0.000000000000000000, 0.000000000000000000 ) ) ;
#229 = AXIS2_PLACEMENT_3D ( 'NONE', #245, #205, #39 ) ;
#230 = CC_DESIGN_DATE_AND_TIME_ASSIGNMENT ( #220, #25, ( #15 ) ) ;
#231 = CARTESIAN_POINT ( 'NONE',  ( 9.000000000000000000, 1.102182119232617714E-15, 250.0000000000000000 ) ) ;
#232 = LINE ( 'NONE', #50, #116 ) ;
#233 = APPROVAL_ROLE ( '' ) ;
#234 = VERTEX_POINT ( 'NONE', #231 ) ;
#235 = VECTOR ( 'NONE', #120, 1000.000000000000000 ) ;
#236 = ORIENTED_EDGE ( 'NONE', *, *, #194, .F. ) ;
#237 = PERSON_AND_ORGANIZATION_ROLE ( 'creator' ) ;
#238 = PRODUCT_DEFINITION_SHAPE ( 'NONE', 'NONE',  #15 ) ;
#239 = ORIENTED_EDGE ( 'NONE', *, *, #139, .F. ) ;
#240 = PRODUCT_DEFINITION_FORMATION_WITH_SPECIFIED_SOURCE ( 'LIBOVOLNÝ', '', #54, .NOT_KNOWN. ) ;
#241 = ADVANCED_FACE ( 'NONE', ( #31 ), #250, .T. ) ;
#242 = CARTESIAN_POINT ( 'NONE',  ( 0.000000000000000000, 0.000000000000000000, 7.000000000000000000 ) ) ;
#243 = APPROVAL_STATUS ( 'not_yet_approved' ) ;
#244 = CARTESIAN_POINT ( 'NONE',  ( 0.000000000000000000, 0.000000000000000000, 0.000000000000000000 ) ) ;
#245 = CARTESIAN_POINT ( 'NONE',  ( 0.000000000000000000, 0.000000000000000000, 0.000000000000000000 ) ) ;
#246 = APPROVAL_ROLE ( '' ) ;
#247 = CARTESIAN_POINT ( 'NONE',  ( 12.00000000000000178, 1.469576158976824144E-15, 7.000000000000000000 ) ) ;
#248 =( GEOMETRIC_REPRESENTATION_CONTEXT ( 3 ) GLOBAL_UNCERTAINTY_ASSIGNED_CONTEXT ( ( #144 ) ) GLOBAL_UNIT_ASSIGNED_CONTEXT ( ( #147, #49, #126 ) ) REPRESENTATION_CONTEXT ( 'NONE', 'WORKASPACE' ) );
#249 = MECHANICAL_CONTEXT ( 'NONE', #151, 'mechanical' ) ;
#250 = CYLINDRICAL_SURFACE ( 'NONE', #106, 9.000000000000000000 ) ;
#251 = ORIENTED_EDGE ( 'NONE', *, *, #161, .T. ) ;
#252 = EDGE_LOOP ( 'NONE', ( #176, #55, #52, #74 ) ) ;
#253 = ORIENTED_EDGE ( 'NONE', *, *, #43, .F. ) ;
#254 = CYLINDRICAL_SURFACE ( 'NONE', #48, 9.000000000000000000 ) ;
#255 = APPROVAL_STATUS ( 'not_yet_approved' ) ;
ENDSEC;
END-ISO-10303-21;
