ISO-10303-21;
HEADER;
FILE_DESCRIPTION (( 'STEP AP203' ),
    '1' );
FILE_NAME ('735d.STEP',
    '2022-07-07T09:31:11',
    ( '' ),
    ( '' ),
    'SwSTEP 2.0',
    'SolidWorks 2019',
    '' );
FILE_SCHEMA (( 'CONFIG_CONTROL_DESIGN' ));
ENDSEC;

DATA;
#1 = ORIENTED_EDGE ( 'NONE', *, *, #169, .F. ) ;
#2 = ORIENTED_EDGE ( 'NONE', *, *, #209, .T. ) ;
#3 = AXIS2_PLACEMENT_3D ( 'NONE', #59, #258, #182 ) ;
#4 = ORIENTED_EDGE ( 'NONE', *, *, #202, .F. ) ;
#5 = AXIS2_PLACEMENT_3D ( 'NONE', #214, #108, #111 ) ;
#6 = CARTESIAN_POINT ( 'NONE',  ( 16.00000000000000000, 1.959434878635765131E-15, 0.000000000000000000 ) ) ;
#7 = DIRECTION ( 'NONE',  ( 0.000000000000000000, 0.000000000000000000, 1.000000000000000000 ) ) ;
#8 = EDGE_CURVE ( 'NONE', #141, #105, #179, .T. ) ;
#9 = CARTESIAN_POINT ( 'NONE',  ( -12.70000000000000107, 1.555301434917138630E-15, 10.19999999999998685 ) ) ;
#10 = ORIENTED_EDGE ( 'NONE', *, *, #263, .T. ) ;
#11 = DIRECTION ( 'NONE',  ( 1.000000000000000000, 0.000000000000000000, 0.000000000000000000 ) ) ;
#12 = CC_DESIGN_SECURITY_CLASSIFICATION ( #84, ( #235 ) ) ;
#13 = CARTESIAN_POINT ( 'NONE',  ( 0.000000000000000000, 0.000000000000000000, 0.000000000000000000 ) ) ;
#14 = TOROIDAL_SURFACE ( 'NONE', #265, 12.70000000000000107, 0.2000000000000000111 ) ;
#15 = DIRECTION ( 'NONE',  ( -0.000000000000000000, -0.000000000000000000, -1.000000000000000000 ) ) ;
#16 = PERSON ( 'NEURÈENÝ', 'NEURÈENÝ', 'NEURÈENÝ', ('NEURÈENÝ'), ('NEURÈENÝ'), ('NEURÈENÝ') ) ;
#17 = FACE_OUTER_BOUND ( 'NONE', #145, .T. ) ;
#18 = EDGE_CURVE ( 'NONE', #46, #131, #222, .T. ) ;
#19 = MECHANICAL_CONTEXT ( 'NONE', #153, 'mechanical' ) ;
#20 = DIRECTION ( 'NONE',  ( 1.000000000000000000, 0.000000000000000000, 0.000000000000000000 ) ) ;
#21 = APPROVAL_STATUS ( 'not_yet_approved' ) ;
#22 = ORIENTED_EDGE ( 'NONE', *, *, #282, .T. ) ;
#23 = DESIGN_CONTEXT ( 'detailed design', #171, 'design' ) ;
#24 = CALENDAR_DATE ( 2022, 7, 7 ) ;
#25 = VERTEX_POINT ( 'NONE', #129 ) ;
#26 = VERTEX_POINT ( 'NONE', #125 ) ;
#27 = CLOSED_SHELL ( 'NONE', ( #187, #158, #218, #72, #275, #254, #215, #150, #232 ) ) ;
#28 = CARTESIAN_POINT ( 'NONE',  ( 0.000000000000000000, 0.000000000000000000, 10.00000000000000000 ) ) ;
#29 = DIRECTION ( 'NONE',  ( 1.000000000000000000, 0.000000000000000000, 0.000000000000000000 ) ) ;
#30 = EDGE_CURVE ( 'NONE', #131, #46, #207, .T. ) ;
#31 = DIRECTION ( 'NONE',  ( 1.000000000000000000, 0.000000000000000000, 0.000000000000000000 ) ) ;
#32 = CARTESIAN_POINT ( 'NONE',  ( 0.000000000000000000, 0.000000000000000000, 0.000000000000000000 ) ) ;
#33 = CARTESIAN_POINT ( 'NONE',  ( 0.000000000000000000, 0.000000000000000000, 10.00000000000000000 ) ) ;
#34 = CARTESIAN_POINT ( 'NONE',  ( 0.000000000000000000, 0.000000000000000000, 10.19999999999998685 ) ) ;
#35 = CC_DESIGN_APPROVAL ( #75, ( #235 ) ) ;
#36 = FACE_OUTER_BOUND ( 'NONE', #285, .T. ) ;
#37 = COORDINATED_UNIVERSAL_TIME_OFFSET ( 1, 0, .AHEAD. ) ;
#38 =( NAMED_UNIT ( * ) PLANE_ANGLE_UNIT ( ) SI_UNIT ( $, .RADIAN. ) );
#39 = EDGE_CURVE ( 'NONE', #96, #119, #233, .T. ) ;
#40 = CARTESIAN_POINT ( 'NONE',  ( -16.00000000000000000, 0.000000000000000000, 10.00000000000000000 ) ) ;
#41 = LOCAL_TIME ( 11, 31, 11.00000000000000000, #281 ) ;
#42 = DATE_TIME_ROLE ( 'creation_date' ) ;
#43 = PERSON_AND_ORGANIZATION_ROLE ( 'creator' ) ;
#44 = EDGE_LOOP ( 'NONE', ( #45, #240 ) ) ;
#45 = ORIENTED_EDGE ( 'NONE', *, *, #198, .T. ) ;
#46 = VERTEX_POINT ( 'NONE', #6 ) ;
#47 = CARTESIAN_POINT ( 'NONE',  ( 0.000000000000000000, 0.000000000000000000, 0.000000000000000000 ) ) ;
#48 = DIRECTION ( 'NONE',  ( 0.000000000000000000, 0.000000000000000000, 1.000000000000000000 ) ) ;
#49 = CIRCLE ( 'NONE', #60, 12.50000000000000000 ) ;
#50 = DIRECTION ( 'NONE',  ( 0.000000000000000000, 0.000000000000000000, 1.000000000000000000 ) ) ;
#51 = CARTESIAN_POINT ( 'NONE',  ( -12.50000000000000000, 0.000000000000000000, 10.19999999999998685 ) ) ;
#52 = ORIENTED_EDGE ( 'NONE', *, *, #169, .T. ) ;
#53 = EDGE_CURVE ( 'NONE', #208, #105, #269, .T. ) ;
#54 = CARTESIAN_POINT ( 'NONE',  ( 12.50000000000000000, 1.530808498934191521E-15, 10.19999999999998685 ) ) ;
#55 = CARTESIAN_POINT ( 'NONE',  ( 12.50000000000000000, 1.530808498934191521E-15, 510.0000000000000000 ) ) ;
#56 = DIRECTION ( 'NONE',  ( 1.000000000000000000, 0.000000000000000000, 0.000000000000000000 ) ) ;
#57 = EDGE_CURVE ( 'NONE', #25, #26, #49, .T. ) ;
#58 = PERSON_AND_ORGANIZATION_ROLE ( 'design_supplier' ) ;
#59 = CARTESIAN_POINT ( 'NONE',  ( 0.000000000000000000, 0.000000000000000000, 10.00000000000000000 ) ) ;
#60 = AXIS2_PLACEMENT_3D ( 'NONE', #247, #50, #106 ) ;
#61 = PERSON_AND_ORGANIZATION ( #16, #298 ) ;
#62 = VECTOR ( 'NONE', #157, 1000.000000000000000 ) ;
#63 = DIRECTION ( 'NONE',  ( 1.000000000000000000, 0.000000000000000000, 0.000000000000000000 ) ) ;
#64 = AXIS2_PLACEMENT_3D ( 'NONE', #47, #74, #178 ) ;
#65 = DATE_AND_TIME ( #192, #253 ) ;
#66 = AXIS2_PLACEMENT_3D ( 'NONE', #67, #167, #305 ) ;
#67 = CARTESIAN_POINT ( 'NONE',  ( 0.000000000000000000, 0.000000000000000000, 0.000000000000000000 ) ) ;
#68 = MANIFOLD_SOLID_BREP ( 'Zaoblit1', #27 ) ;
#69 = EDGE_LOOP ( 'NONE', ( #10, #168 ) ) ;
#70 = APPROVAL_PERSON_ORGANIZATION ( #237, #134, #188 ) ;
#71 = ORIENTED_EDGE ( 'NONE', *, *, #8, .F. ) ;
#72 = ADVANCED_FACE ( 'NONE', ( #223 ), #77, .T. ) ;
#73 = VECTOR ( 'NONE', #164, 1000.000000000000000 ) ;
#74 = DIRECTION ( 'NONE',  ( 0.000000000000000000, 0.000000000000000000, 1.000000000000000000 ) ) ;
#75 = APPROVAL ( #113, 'NEURÈENÝ' ) ;
#76 = PLANE ( 'NONE',  #155 ) ;
#77 = CYLINDRICAL_SURFACE ( 'NONE', #220, 16.00000000000000000 ) ;
#78 = CIRCLE ( 'NONE', #5, 12.70000000000000107 ) ;
#79 = CIRCLE ( 'NONE', #306, 16.00000000000000000 ) ;
#80 = DIRECTION ( 'NONE',  ( 1.224646799147353207E-16, 1.000000000000000000, -0.000000000000000000 ) ) ;
#81 = AXIS2_PLACEMENT_3D ( 'NONE', #297, #91, #139 ) ;
#82 = AXIS2_PLACEMENT_3D ( 'NONE', #33, #148, #31 ) ;
#83 = ORIENTED_EDGE ( 'NONE', *, *, #30, .F. ) ;
#84 = SECURITY_CLASSIFICATION ( '', '', #161 ) ;
#85 = DIRECTION ( 'NONE',  ( 0.000000000000000000, 0.000000000000000000, 1.000000000000000000 ) ) ;
#86 = PLANE ( 'NONE',  #95 ) ;
#87 = APPROVAL_STATUS ( 'not_yet_approved' ) ;
#88 = DIRECTION ( 'NONE',  ( 0.000000000000000000, 0.000000000000000000, 1.000000000000000000 ) ) ;
#89 = CC_DESIGN_PERSON_AND_ORGANIZATION_ASSIGNMENT ( #140, #256, ( #84 ) ) ;
#90 = LOCAL_TIME ( 11, 31, 11.00000000000000000, #279 ) ;
#91 = DIRECTION ( 'NONE',  ( -0.000000000000000000, -0.000000000000000000, -1.000000000000000000 ) ) ;
#92 =( LENGTH_UNIT ( ) NAMED_UNIT ( * ) SI_UNIT ( .MILLI., .METRE. ) );
#93 = CALENDAR_DATE ( 2022, 7, 7 ) ;
#94 = APPLICATION_PROTOCOL_DEFINITION ( 'international standard', 'config_control_design', 1994, #171 ) ;
#95 = AXIS2_PLACEMENT_3D ( 'NONE', #13, #304, #186 ) ;
#96 = VERTEX_POINT ( 'NONE', #174 ) ;
#97 = EDGE_LOOP ( 'NONE', ( #266, #22, #180, #152 ) ) ;
#98 = CC_DESIGN_PERSON_AND_ORGANIZATION_ASSIGNMENT ( #307, #43, ( #193 ) ) ;
#99 = ORIENTED_EDGE ( 'NONE', *, *, #39, .T. ) ;
#100 = PRODUCT ( '735d', '735d', '', ( #19 ) ) ;
#101 = FACE_OUTER_BOUND ( 'NONE', #44, .T. ) ;
#102 = CC_DESIGN_PERSON_AND_ORGANIZATION_ASSIGNMENT ( #61, #137, ( #100 ) ) ;
#103 = CYLINDRICAL_SURFACE ( 'NONE', #200, 12.50000000000000000 ) ;
#104 = CARTESIAN_POINT ( 'NONE',  ( 16.00000000000000000, 1.959434878635765131E-15, 10.00000000000000000 ) ) ;
#105 = VERTEX_POINT ( 'NONE', #267 ) ;
#106 = DIRECTION ( 'NONE',  ( 1.000000000000000000, 0.000000000000000000, 0.000000000000000000 ) ) ;
#107 = LOCAL_TIME ( 11, 31, 11.00000000000000000, #37 ) ;
#108 = DIRECTION ( 'NONE',  ( -0.000000000000000000, -0.000000000000000000, -1.000000000000000000 ) ) ;
#109 = CARTESIAN_POINT ( 'NONE',  ( 0.000000000000000000, 0.000000000000000000, 10.19999999999998685 ) ) ;
#110 = PERSON_AND_ORGANIZATION ( #16, #298 ) ;
#111 = DIRECTION ( 'NONE',  ( 1.000000000000000000, 0.000000000000000000, 0.000000000000000000 ) ) ;
#112 = CARTESIAN_POINT ( 'NONE',  ( 0.000000000000000000, 0.000000000000000000, 10.00000000000000000 ) ) ;
#113 = APPROVAL_STATUS ( 'not_yet_approved' ) ;
#114 = CARTESIAN_POINT ( 'NONE',  ( 0.000000000000000000, 0.000000000000000000, 10.19999999999998685 ) ) ;
#115 = AXIS2_PLACEMENT_3D ( 'NONE', #292, #147, #248 ) ;
#116 = UNCERTAINTY_MEASURE_WITH_UNIT (LENGTH_MEASURE( 1.000000000000000082E-05 ), #92, 'distance_accuracy_value', 'NONE');
#117 = CC_DESIGN_DATE_AND_TIME_ASSIGNMENT ( #239, #284, ( #84 ) ) ;
#118 = CALENDAR_DATE ( 2022, 7, 7 ) ;
#119 = VERTEX_POINT ( 'NONE', #104 ) ;
#120 =( GEOMETRIC_REPRESENTATION_CONTEXT ( 3 ) GLOBAL_UNCERTAINTY_ASSIGNED_CONTEXT ( ( #116 ) ) GLOBAL_UNIT_ASSIGNED_CONTEXT ( ( #92, #38, #283 ) ) REPRESENTATION_CONTEXT ( 'NONE', 'WORKASPACE' ) );
#121 = EDGE_CURVE ( 'NONE', #170, #208, #244, .T. ) ;
#122 = EDGE_LOOP ( 'NONE', ( #219, #242, #2, #243 ) ) ;
#123 = VECTOR ( 'NONE', #189, 1000.000000000000000 ) ;
#124 = AXIS2_PLACEMENT_3D ( 'NONE', #32, #249, #130 ) ;
#125 = CARTESIAN_POINT ( 'NONE',  ( -12.50000000000000000, 0.000000000000000000, 510.0000000000000000 ) ) ;
#126 = AXIS2_PLACEMENT_3D ( 'NONE', #9, #80, #271 ) ;
#127 = CC_DESIGN_DATE_AND_TIME_ASSIGNMENT ( #190, #42, ( #193 ) ) ;
#128 = FACE_OUTER_BOUND ( 'NONE', #97, .T. ) ;
#129 = CARTESIAN_POINT ( 'NONE',  ( 12.50000000000000000, 1.530808498934191521E-15, 510.0000000000000000 ) ) ;
#130 = DIRECTION ( 'NONE',  ( 1.000000000000000000, 0.000000000000000000, 0.000000000000000000 ) ) ;
#131 = VERTEX_POINT ( 'NONE', #290 ) ;
#132 = VECTOR ( 'NONE', #15, 1000.000000000000000 ) ;
#133 = DIRECTION ( 'NONE',  ( 0.000000000000000000, 0.000000000000000000, 1.000000000000000000 ) ) ;
#134 = APPROVAL ( #87, 'NEURÈENÝ' ) ;
#135 = FACE_OUTER_BOUND ( 'NONE', #166, .T. ) ;
#136 = DATE_AND_TIME ( #24, #296 ) ;
#137 = PERSON_AND_ORGANIZATION_ROLE ( 'design_owner' ) ;
#138 = LINE ( 'NONE', #278, #73 ) ;
#139 = DIRECTION ( 'NONE',  ( -1.000000000000000000, 0.000000000000000000, 0.000000000000000000 ) ) ;
#140 = PERSON_AND_ORGANIZATION ( #16, #298 ) ;
#141 = VERTEX_POINT ( 'NONE', #204 ) ;
#142 = PERSON_AND_ORGANIZATION ( #16, #298 ) ;
#143 = CC_DESIGN_PERSON_AND_ORGANIZATION_ASSIGNMENT ( #142, #277, ( #235 ) ) ;
#144 = ORIENTED_EDGE ( 'NONE', *, *, #121, .F. ) ;
#145 = EDGE_LOOP ( 'NONE', ( #99, #154 ) ) ;
#146 = APPROVAL_PERSON_ORGANIZATION ( #110, #293, #234 ) ;
#147 = DIRECTION ( 'NONE',  ( 0.000000000000000000, -1.000000000000000000, 0.000000000000000000 ) ) ;
#148 = DIRECTION ( 'NONE',  ( -0.000000000000000000, -0.000000000000000000, -1.000000000000000000 ) ) ;
#149 = DIRECTION ( 'NONE',  ( -0.000000000000000000, -0.000000000000000000, -1.000000000000000000 ) ) ;
#150 = ADVANCED_FACE ( 'NONE', ( #101 ), #76, .T. ) ;
#151 = APPROVAL_PERSON_ORGANIZATION ( #185, #75, #183 ) ;
#152 = ORIENTED_EDGE ( 'NONE', *, *, #209, .F. ) ;
#153 = APPLICATION_CONTEXT ( 'configuration controlled 3d designs of mechanical parts and assemblies' ) ;
#154 = ORIENTED_EDGE ( 'NONE', *, *, #172, .T. ) ;
#155 = AXIS2_PLACEMENT_3D ( 'NONE', #291, #7, #201 ) ;
#156 = CYLINDRICAL_SURFACE ( 'NONE', #81, 12.50000000000000000 ) ;
#157 = DIRECTION ( 'NONE',  ( -0.000000000000000000, -0.000000000000000000, -1.000000000000000000 ) ) ;
#158 = ADVANCED_FACE ( 'NONE', ( #128 ), #103, .T. ) ;
#159 = DATE_AND_TIME ( #165, #41 ) ;
#160 = LINE ( 'NONE', #280, #132 ) ;
#161 = SECURITY_CLASSIFICATION_LEVEL ( 'unclassified' ) ;
#162 = CYLINDRICAL_SURFACE ( 'NONE', #3, 16.00000000000000000 ) ;
#163 = APPLICATION_PROTOCOL_DEFINITION ( 'international standard', 'config_control_design', 1994, #153 ) ;
#164 = DIRECTION ( 'NONE',  ( -0.000000000000000000, -0.000000000000000000, -1.000000000000000000 ) ) ;
#165 = CALENDAR_DATE ( 2022, 7, 7 ) ;
#166 = EDGE_LOOP ( 'NONE', ( #1, #4, #272, #71 ) ) ;
#167 = DIRECTION ( 'NONE',  ( 0.000000000000000000, 0.000000000000000000, 1.000000000000000000 ) ) ;
#168 = ORIENTED_EDGE ( 'NONE', *, *, #8, .T. ) ;
#169 = EDGE_CURVE ( 'NONE', #170, #141, #205, .T. ) ;
#170 = VERTEX_POINT ( 'NONE', #51 ) ;
#171 = APPLICATION_CONTEXT ( 'configuration controlled 3d designs of mechanical parts and assemblies' ) ;
#172 = EDGE_CURVE ( 'NONE', #119, #96, #79, .T. ) ;
#173 = ORIENTED_EDGE ( 'NONE', *, *, #263, .F. ) ;
#174 = CARTESIAN_POINT ( 'NONE',  ( -16.00000000000000000, 0.000000000000000000, 10.00000000000000000 ) ) ;
#175 = DIRECTION ( 'NONE',  ( -0.000000000000000000, -0.000000000000000000, -1.000000000000000000 ) ) ;
#176 = EDGE_CURVE ( 'NONE', #119, #46, #138, .T. ) ;
#177 = AXIS2_PLACEMENT_3D ( 'NONE', #109, #88, #276 ) ;
#178 = DIRECTION ( 'NONE',  ( 1.000000000000000000, 0.000000000000000000, 0.000000000000000000 ) ) ;
#179 = CIRCLE ( 'NONE', #82, 12.70000000000000107 ) ;
#180 = ORIENTED_EDGE ( 'NONE', *, *, #202, .T. ) ;
#181 = DIRECTION ( 'NONE',  ( 0.000000000000000000, 0.000000000000000000, 1.000000000000000000 ) ) ;
#182 = DIRECTION ( 'NONE',  ( -1.000000000000000000, 0.000000000000000000, 0.000000000000000000 ) ) ;
#183 = APPROVAL_ROLE ( '' ) ;
#184 = DIRECTION ( 'NONE',  ( 0.000000000000000000, 0.000000000000000000, 1.000000000000000000 ) ) ;
#185 = PERSON_AND_ORGANIZATION ( #16, #298 ) ;
#186 = DIRECTION ( 'NONE',  ( 1.000000000000000000, 0.000000000000000000, -0.000000000000000000 ) ) ;
#187 = ADVANCED_FACE ( 'NONE', ( #36 ), #14, .F. ) ;
#188 = APPROVAL_ROLE ( '' ) ;
#189 = DIRECTION ( 'NONE',  ( -0.000000000000000000, -0.000000000000000000, -1.000000000000000000 ) ) ;
#190 = DATE_AND_TIME ( #93, #90 ) ;
#191 = CC_DESIGN_APPROVAL ( #134, ( #193 ) ) ;
#192 = CALENDAR_DATE ( 2022, 7, 7 ) ;
#193 = PRODUCT_DEFINITION ( 'NEZNÁMÝ', '', #235, #23 ) ;
#194 = AXIS2_PLACEMENT_3D ( 'NONE', #34, #133, #20 ) ;
#195 = ORIENTED_EDGE ( 'NONE', *, *, #53, .F. ) ;
#196 = AXIS2_PLACEMENT_3D ( 'NONE', #213, #231, #56 ) ;
#197 = ORIENTED_EDGE ( 'NONE', *, *, #18, .F. ) ;
#198 = EDGE_CURVE ( 'NONE', #26, #25, #199, .T. ) ;
#199 = CIRCLE ( 'NONE', #196, 12.50000000000000000 ) ;
#200 = AXIS2_PLACEMENT_3D ( 'NONE', #203, #175, #226 ) ;
#201 = DIRECTION ( 'NONE',  ( 1.000000000000000000, 0.000000000000000000, -0.000000000000000000 ) ) ;
#202 = EDGE_CURVE ( 'NONE', #208, #170, #270, .T. ) ;
#203 = CARTESIAN_POINT ( 'NONE',  ( 0.000000000000000000, 0.000000000000000000, 510.0000000000000000 ) ) ;
#204 = CARTESIAN_POINT ( 'NONE',  ( -12.70000000000000107, 1.555301434917138630E-15, 9.999999999999992895 ) ) ;
#205 = CIRCLE ( 'NONE', #126, 0.2000000000000005107 ) ;
#206 = DIRECTION ( 'NONE',  ( 0.000000000000000000, 0.000000000000000000, 1.000000000000000000 ) ) ;
#207 = CIRCLE ( 'NONE', #64, 16.00000000000000000 ) ;
#208 = VERTEX_POINT ( 'NONE', #54 ) ;
#209 = EDGE_CURVE ( 'NONE', #26, #170, #160, .T. ) ;
#210 = ADVANCED_BREP_SHAPE_REPRESENTATION ( '735d', ( #68, #66 ), #120 ) ;
#211 = PLANE ( 'NONE',  #294 ) ;
#212 = APPROVAL_DATE_TIME ( #136, #293 ) ;
#213 = CARTESIAN_POINT ( 'NONE',  ( 0.000000000000000000, 0.000000000000000000, 510.0000000000000000 ) ) ;
#214 = CARTESIAN_POINT ( 'NONE',  ( 0.000000000000000000, 0.000000000000000000, 10.00000000000000000 ) ) ;
#215 = ADVANCED_FACE ( 'NONE', ( #273 ), #156, .T. ) ;
#216 = COORDINATED_UNIVERSAL_TIME_OFFSET ( 1, 0, .AHEAD. ) ;
#217 = ORIENTED_EDGE ( 'NONE', *, *, #18, .T. ) ;
#218 = ADVANCED_FACE ( 'NONE', ( #238 ), #162, .T. ) ;
#219 = ORIENTED_EDGE ( 'NONE', *, *, #282, .F. ) ;
#220 = AXIS2_PLACEMENT_3D ( 'NONE', #28, #149, #295 ) ;
#221 = TOROIDAL_SURFACE ( 'NONE', #194, 12.70000000000000107, 0.2000000000000000111 ) ;
#222 = CIRCLE ( 'NONE', #124, 16.00000000000000000 ) ;
#223 = FACE_OUTER_BOUND ( 'NONE', #286, .T. ) ;
#224 = EDGE_CURVE ( 'NONE', #96, #131, #301, .T. ) ;
#225 = CARTESIAN_POINT ( 'NONE',  ( 0.000000000000000000, 0.000000000000000000, 10.19999999999998685 ) ) ;
#226 = DIRECTION ( 'NONE',  ( -1.000000000000000000, 0.000000000000000000, 0.000000000000000000 ) ) ;
#227 = CARTESIAN_POINT ( 'NONE',  ( 0.000000000000000000, 0.000000000000000000, 10.00000000000000000 ) ) ;
#228 = ORIENTED_EDGE ( 'NONE', *, *, #224, .F. ) ;
#229 = CC_DESIGN_PERSON_AND_ORGANIZATION_ASSIGNMENT ( #259, #58, ( #235 ) ) ;
#230 = FACE_OUTER_BOUND ( 'NONE', #287, .T. ) ;
#231 = DIRECTION ( 'NONE',  ( 0.000000000000000000, 0.000000000000000000, 1.000000000000000000 ) ) ;
#232 = ADVANCED_FACE ( 'NONE', ( #135 ), #221, .F. ) ;
#233 = CIRCLE ( 'NONE', #252, 16.00000000000000000 ) ;
#234 = APPROVAL_ROLE ( '' ) ;
#235 = PRODUCT_DEFINITION_FORMATION_WITH_SPECIFIED_SOURCE ( 'LIBOVOLNÝ', '', #100, .NOT_KNOWN. ) ;
#236 = FACE_BOUND ( 'NONE', #69, .T. ) ;
#237 = PERSON_AND_ORGANIZATION ( #16, #298 ) ;
#238 = FACE_OUTER_BOUND ( 'NONE', #251, .T. ) ;
#239 = DATE_AND_TIME ( #118, #107 ) ;
#240 = ORIENTED_EDGE ( 'NONE', *, *, #57, .T. ) ;
#241 = COORDINATED_UNIVERSAL_TIME_OFFSET ( 1, 0, .AHEAD. ) ;
#242 = ORIENTED_EDGE ( 'NONE', *, *, #198, .F. ) ;
#243 = ORIENTED_EDGE ( 'NONE', *, *, #121, .T. ) ;
#244 = CIRCLE ( 'NONE', #288, 12.50000000000000000 ) ;
#245 = PRODUCT_RELATED_PRODUCT_CATEGORY ( 'detail', '', ( #100 ) ) ;
#246 = ORIENTED_EDGE ( 'NONE', *, *, #176, .F. ) ;
#247 = CARTESIAN_POINT ( 'NONE',  ( 0.000000000000000000, 0.000000000000000000, 510.0000000000000000 ) ) ;
#248 = DIRECTION ( 'NONE',  ( 0.000000000000000000, 0.000000000000000000, -1.000000000000000000 ) ) ;
#249 = DIRECTION ( 'NONE',  ( 0.000000000000000000, 0.000000000000000000, 1.000000000000000000 ) ) ;
#250 = ORIENTED_EDGE ( 'NONE', *, *, #176, .T. ) ;
#251 = EDGE_LOOP ( 'NONE', ( #264, #250, #217, #228 ) ) ;
#252 = AXIS2_PLACEMENT_3D ( 'NONE', #227, #206, #11 ) ;
#253 = LOCAL_TIME ( 11, 31, 11.00000000000000000, #216 ) ;
#254 = ADVANCED_FACE ( 'NONE', ( #230 ), #86, .F. ) ;
#255 = APPROVAL_DATE_TIME ( #159, #75 ) ;
#256 = PERSON_AND_ORGANIZATION_ROLE ( 'classification_officer' ) ;
#257 = DIRECTION ( 'NONE',  ( 1.000000000000000000, 0.000000000000000000, 0.000000000000000000 ) ) ;
#258 = DIRECTION ( 'NONE',  ( -0.000000000000000000, -0.000000000000000000, -1.000000000000000000 ) ) ;
#259 = PERSON_AND_ORGANIZATION ( #16, #298 ) ;
#260 = ORIENTED_EDGE ( 'NONE', *, *, #30, .T. ) ;
#261 = CC_DESIGN_APPROVAL ( #293, ( #84 ) ) ;
#262 = ORIENTED_EDGE ( 'NONE', *, *, #224, .T. ) ;
#263 = EDGE_CURVE ( 'NONE', #105, #141, #78, .T. ) ;
#264 = ORIENTED_EDGE ( 'NONE', *, *, #172, .F. ) ;
#265 = AXIS2_PLACEMENT_3D ( 'NONE', #114, #181, #257 ) ;
#266 = ORIENTED_EDGE ( 'NONE', *, *, #57, .F. ) ;
#267 = CARTESIAN_POINT ( 'NONE',  ( 12.70000000000000107, 0.000000000000000000, 9.999999999999992895 ) ) ;
#268 = ORIENTED_EDGE ( 'NONE', *, *, #39, .F. ) ;
#269 = CIRCLE ( 'NONE', #115, 0.2000000000000005107 ) ;
#270 = CIRCLE ( 'NONE', #177, 12.50000000000000000 ) ;
#271 = DIRECTION ( 'NONE',  ( -1.000000000000000000, 1.224646799147353207E-16, 0.000000000000000000 ) ) ;
#272 = ORIENTED_EDGE ( 'NONE', *, *, #53, .T. ) ;
#273 = FACE_OUTER_BOUND ( 'NONE', #122, .T. ) ;
#274 = LINE ( 'NONE', #55, #62 ) ;
#275 = ADVANCED_FACE ( 'NONE', ( #236, #17 ), #211, .T. ) ;
#276 = DIRECTION ( 'NONE',  ( 1.000000000000000000, 0.000000000000000000, 0.000000000000000000 ) ) ;
#277 = PERSON_AND_ORGANIZATION_ROLE ( 'creator' ) ;
#278 = CARTESIAN_POINT ( 'NONE',  ( 16.00000000000000000, 1.959434878635765131E-15, 10.00000000000000000 ) ) ;
#279 = COORDINATED_UNIVERSAL_TIME_OFFSET ( 1, 0, .AHEAD. ) ;
#280 = CARTESIAN_POINT ( 'NONE',  ( -12.50000000000000000, 0.000000000000000000, 510.0000000000000000 ) ) ;
#281 = COORDINATED_UNIVERSAL_TIME_OFFSET ( 1, 0, .AHEAD. ) ;
#282 = EDGE_CURVE ( 'NONE', #25, #208, #274, .T. ) ;
#283 =( NAMED_UNIT ( * ) SI_UNIT ( $, .STERADIAN. ) SOLID_ANGLE_UNIT ( ) );
#284 = DATE_TIME_ROLE ( 'classification_date' ) ;
#285 = EDGE_LOOP ( 'NONE', ( #144, #52, #173, #195 ) ) ;
#286 = EDGE_LOOP ( 'NONE', ( #246, #268, #262, #260 ) ) ;
#287 = EDGE_LOOP ( 'NONE', ( #83, #197 ) ) ;
#288 = AXIS2_PLACEMENT_3D ( 'NONE', #225, #48, #29 ) ;
#289 = PRODUCT_DEFINITION_SHAPE ( 'NONE', 'NONE',  #193 ) ;
#290 = CARTESIAN_POINT ( 'NONE',  ( -16.00000000000000000, 0.000000000000000000, 0.000000000000000000 ) ) ;
#291 = CARTESIAN_POINT ( 'NONE',  ( 0.000000000000000000, 0.000000000000000000, 510.0000000000000000 ) ) ;
#292 = CARTESIAN_POINT ( 'NONE',  ( 12.70000000000000107, 0.000000000000000000, 10.19999999999998685 ) ) ;
#293 = APPROVAL ( #21, 'NEURÈENÝ' ) ;
#294 = AXIS2_PLACEMENT_3D ( 'NONE', #303, #184, #299 ) ;
#295 = DIRECTION ( 'NONE',  ( -1.000000000000000000, 0.000000000000000000, 0.000000000000000000 ) ) ;
#296 = LOCAL_TIME ( 11, 31, 11.00000000000000000, #241 ) ;
#297 = CARTESIAN_POINT ( 'NONE',  ( 0.000000000000000000, 0.000000000000000000, 510.0000000000000000 ) ) ;
#298 = ORGANIZATION ( 'NEURÈENÝ', 'NEURÈENÝ', '' ) ;
#299 = DIRECTION ( 'NONE',  ( 1.000000000000000000, 0.000000000000000000, -0.000000000000000000 ) ) ;
#300 = SHAPE_DEFINITION_REPRESENTATION ( #289, #210 ) ;
#301 = LINE ( 'NONE', #40, #123 ) ;
#302 = APPROVAL_DATE_TIME ( #65, #134 ) ;
#303 = CARTESIAN_POINT ( 'NONE',  ( 0.000000000000000000, 0.000000000000000000, 10.00000000000000000 ) ) ;
#304 = DIRECTION ( 'NONE',  ( 0.000000000000000000, 0.000000000000000000, 1.000000000000000000 ) ) ;
#305 = DIRECTION ( 'NONE',  ( 1.000000000000000000, 0.000000000000000000, 0.000000000000000000 ) ) ;
#306 = AXIS2_PLACEMENT_3D ( 'NONE', #112, #85, #63 ) ;
#307 = PERSON_AND_ORGANIZATION ( #16, #298 ) ;
ENDSEC;
END-ISO-10303-21;
