ISO-10303-21;
HEADER;
FILE_DESCRIPTION (( 'STEP AP203' ),
    '1' );
FILE_NAME ('d509.STEP',
    '2022-07-07T10:13:33',
    ( '' ),
    ( '' ),
    'SwSTEP 2.0',
    'SolidWorks 2019',
    '' );
FILE_SCHEMA (( 'CONFIG_CONTROL_DESIGN' ));
ENDSEC;

DATA;
#1 = SECURITY_CLASSIFICATION_LEVEL ( 'unclassified' ) ;
#2 = EDGE_LOOP ( 'NONE', ( #97, #7, #227, #101 ) ) ;
#3 = LOCAL_TIME ( 12, 13, 33.00000000000000000, #44 ) ;
#4 = VERTEX_POINT ( 'NONE', #195 ) ;
#5 = EDGE_LOOP ( 'NONE', ( #127, #144, #32, #72 ) ) ;
#6 = DIRECTION ( 'NONE',  ( 1.000000000000000000, 0.000000000000000000, 0.000000000000000000 ) ) ;
#7 = ORIENTED_EDGE ( 'NONE', *, *, #179, .F. ) ;
#8 = PLANE ( 'NONE',  #280 ) ;
#9 = AXIS2_PLACEMENT_3D ( 'NONE', #130, #83, #224 ) ;
#10 = FACE_OUTER_BOUND ( 'NONE', #2, .T. ) ;
#11 = DIRECTION ( 'NONE',  ( -1.000000000000000000, 0.000000000000000000, 0.000000000000000000 ) ) ;
#12 = DIRECTION ( 'NONE',  ( 0.000000000000000000, 0.000000000000000000, 1.000000000000000000 ) ) ;
#13 = CIRCLE ( 'NONE', #60, 6.000000000000000888 ) ;
#14 = VECTOR ( 'NONE', #155, 1000.000000000000000 ) ;
#15 = CC_DESIGN_PERSON_AND_ORGANIZATION_ASSIGNMENT ( #259, #234, ( #111 ) ) ;
#16 = ORIENTED_EDGE ( 'NONE', *, *, #152, .T. ) ;
#17 = DIRECTION ( 'NONE',  ( -0.000000000000000000, -0.000000000000000000, -1.000000000000000000 ) ) ;
#18 = AXIS2_PLACEMENT_3D ( 'NONE', #296, #153, #205 ) ;
#19 = APPROVAL_ROLE ( '' ) ;
#20 = EDGE_CURVE ( 'NONE', #79, #136, #13, .T. ) ;
#21 = CALENDAR_DATE ( 2022, 7, 7 ) ;
#22 = COORDINATED_UNIVERSAL_TIME_OFFSET ( 1, 0, .AHEAD. ) ;
#23 = ORIENTED_EDGE ( 'NONE', *, *, #196, .T. ) ;
#24 = ORGANIZATION ( 'NEURÈENÝ', 'NEURÈENÝ', '' ) ;
#25 = APPROVAL ( #185, 'NEURÈENÝ' ) ;
#26 = MECHANICAL_CONTEXT ( 'NONE', #240, 'mechanical' ) ;
#27 = DIRECTION ( 'NONE',  ( 0.000000000000000000, 0.000000000000000000, 1.000000000000000000 ) ) ;
#28 = CIRCLE ( 'NONE', #145, 3.000000000000000444 ) ;
#29 = CYLINDRICAL_SURFACE ( 'NONE', #191, 6.000000000000000888 ) ;
#30 = MANIFOLD_SOLID_BREP ( 'Zaoblit1', #115 ) ;
#31 = VECTOR ( 'NONE', #221, 1000.000000000000000 ) ;
#32 = ORIENTED_EDGE ( 'NONE', *, *, #217, .T. ) ;
#33 = CARTESIAN_POINT ( 'NONE',  ( 0.000000000000000000, 0.000000000000000000, 5.000000000000000000 ) ) ;
#34 = DIRECTION ( 'NONE',  ( -0.000000000000000000, -0.000000000000000000, -1.000000000000000000 ) ) ;
#35 = CIRCLE ( 'NONE', #253, 3.000000000000000444 ) ;
#36 = FACE_OUTER_BOUND ( 'NONE', #166, .T. ) ;
#37 = DIRECTION ( 'NONE',  ( 0.000000000000000000, 0.000000000000000000, -1.000000000000000000 ) ) ;
#38 = CARTESIAN_POINT ( 'NONE',  ( 0.000000000000000000, 0.000000000000000000, 5.000000000000000000 ) ) ;
#39 = ADVANCED_FACE ( 'NONE', ( #51 ), #124, .F. ) ;
#40 = VERTEX_POINT ( 'NONE', #268 ) ;
#41 = DIRECTION ( 'NONE',  ( 1.224646799147353207E-16, 1.000000000000000000, -0.000000000000000000 ) ) ;
#42 = CARTESIAN_POINT ( 'NONE',  ( 0.000000000000000000, 0.000000000000000000, 5.200000000000009948 ) ) ;
#43 = ORIENTED_EDGE ( 'NONE', *, *, #229, .F. ) ;
#44 = COORDINATED_UNIVERSAL_TIME_OFFSET ( 1, 0, .AHEAD. ) ;
#45 = CC_DESIGN_PERSON_AND_ORGANIZATION_ASSIGNMENT ( #187, #281, ( #92 ) ) ;
#46 = PERSON_AND_ORGANIZATION ( #112, #24 ) ;
#47 = CALENDAR_DATE ( 2022, 7, 7 ) ;
#48 = ORIENTED_EDGE ( 'NONE', *, *, #179, .T. ) ;
#49 = AXIS2_PLACEMENT_3D ( 'NONE', #50, #193, #102 ) ;
#50 = CARTESIAN_POINT ( 'NONE',  ( 0.000000000000000000, 0.000000000000000000, 0.000000000000000000 ) ) ;
#51 = FACE_OUTER_BOUND ( 'NONE', #75, .T. ) ;
#52 = FACE_OUTER_BOUND ( 'NONE', #286, .T. ) ;
#53 = APPROVAL_PERSON_ORGANIZATION ( #208, #25, #119 ) ;
#54 = DIRECTION ( 'NONE',  ( 1.000000000000000000, 0.000000000000000000, 0.000000000000000000 ) ) ;
#55 = CYLINDRICAL_SURFACE ( 'NONE', #167, 3.000000000000000444 ) ;
#56 = CARTESIAN_POINT ( 'NONE',  ( -3.200000000000000622, 3.918869757271530953E-16, 5.200000000000009948 ) ) ;
#57 = CARTESIAN_POINT ( 'NONE',  ( 3.200000000000000622, 0.000000000000000000, 5.200000000000009948 ) ) ;
#58 = CARTESIAN_POINT ( 'NONE',  ( 3.000000000000000444, 3.673940397442060361E-16, 205.0000000000000284 ) ) ;
#59 = CARTESIAN_POINT ( 'NONE',  ( 3.200000000000000622, 0.000000000000000000, 5.000000000000005329 ) ) ;
#60 = AXIS2_PLACEMENT_3D ( 'NONE', #105, #218, #78 ) ;
#61 = ORIENTED_EDGE ( 'NONE', *, *, #135, .T. ) ;
#62 = CC_DESIGN_APPROVAL ( #81, ( #92 ) ) ;
#63 = DIRECTION ( 'NONE',  ( 1.000000000000000000, 0.000000000000000000, 0.000000000000000000 ) ) ;
#64 = ORIENTED_EDGE ( 'NONE', *, *, #287, .F. ) ;
#65 = DIRECTION ( 'NONE',  ( 1.000000000000000000, 0.000000000000000000, 0.000000000000000000 ) ) ;
#66 = ADVANCED_FACE ( 'NONE', ( #244 ), #216, .F. ) ;
#67 = PERSON_AND_ORGANIZATION ( #112, #24 ) ;
#68 =( NAMED_UNIT ( * ) SI_UNIT ( $, .STERADIAN. ) SOLID_ANGLE_UNIT ( ) );
#69 =( GEOMETRIC_REPRESENTATION_CONTEXT ( 3 ) GLOBAL_UNCERTAINTY_ASSIGNED_CONTEXT ( ( #95 ) ) GLOBAL_UNIT_ASSIGNED_CONTEXT ( ( #108, #203, #68 ) ) REPRESENTATION_CONTEXT ( 'NONE', 'WORKASPACE' ) );
#70 = DATE_AND_TIME ( #21, #248 ) ;
#71 = CC_DESIGN_PERSON_AND_ORGANIZATION_ASSIGNMENT ( #67, #238, ( #189 ) ) ;
#72 = ORIENTED_EDGE ( 'NONE', *, *, #188, .F. ) ;
#73 = APPROVAL_DATE_TIME ( #285, #183 ) ;
#74 = AXIS2_PLACEMENT_3D ( 'NONE', #126, #27, #121 ) ;
#75 = EDGE_LOOP ( 'NONE', ( #225, #302 ) ) ;
#76 = VECTOR ( 'NONE', #131, 1000.000000000000000 ) ;
#77 = CARTESIAN_POINT ( 'NONE',  ( -3.000000000000000444, 0.000000000000000000, 5.200000000000009948 ) ) ;
#78 = DIRECTION ( 'NONE',  ( 1.000000000000000000, 0.000000000000000000, 0.000000000000000000 ) ) ;
#79 = VERTEX_POINT ( 'NONE', #271 ) ;
#80 = DIRECTION ( 'NONE',  ( 0.000000000000000000, 0.000000000000000000, 1.000000000000000000 ) ) ;
#81 = APPROVAL ( #93, 'NEURÈENÝ' ) ;
#82 = CARTESIAN_POINT ( 'NONE',  ( 0.000000000000000000, 0.000000000000000000, 5.000000000000000000 ) ) ;
#83 = DIRECTION ( 'NONE',  ( 0.000000000000000000, 0.000000000000000000, 1.000000000000000000 ) ) ;
#84 = DIRECTION ( 'NONE',  ( 1.000000000000000000, 0.000000000000000000, 0.000000000000000000 ) ) ;
#85 = ADVANCED_FACE ( 'NONE', ( #10 ), #55, .T. ) ;
#86 = CARTESIAN_POINT ( 'NONE',  ( -6.000000000000000888, 0.000000000000000000, 5.000000000000000000 ) ) ;
#87 = ORIENTED_EDGE ( 'NONE', *, *, #135, .F. ) ;
#88 = DIRECTION ( 'NONE',  ( 0.000000000000000000, 0.000000000000000000, 1.000000000000000000 ) ) ;
#89 = ORIENTED_EDGE ( 'NONE', *, *, #303, .T. ) ;
#90 = CC_DESIGN_SECURITY_CLASSIFICATION ( #111, ( #184 ) ) ;
#91 = DATE_AND_TIME ( #262, #3 ) ;
#92 = PRODUCT_DEFINITION ( 'NEZNÁMÝ', '', #184, #94 ) ;
#93 = APPROVAL_STATUS ( 'not_yet_approved' ) ;
#94 = DESIGN_CONTEXT ( 'detailed design', #306, 'design' ) ;
#95 = UNCERTAINTY_MEASURE_WITH_UNIT (LENGTH_MEASURE( 1.000000000000000082E-05 ), #108, 'distance_accuracy_value', 'NONE');
#96 = DIRECTION ( 'NONE',  ( 0.000000000000000000, 0.000000000000000000, 1.000000000000000000 ) ) ;
#97 = ORIENTED_EDGE ( 'NONE', *, *, #303, .F. ) ;
#98 = VERTEX_POINT ( 'NONE', #173 ) ;
#99 = LINE ( 'NONE', #215, #198 ) ;
#100 = EDGE_CURVE ( 'NONE', #270, #98, #258, .T. ) ;
#101 = ORIENTED_EDGE ( 'NONE', *, *, #287, .T. ) ;
#102 = DIRECTION ( 'NONE',  ( 1.000000000000000000, 0.000000000000000000, -0.000000000000000000 ) ) ;
#103 = CARTESIAN_POINT ( 'NONE',  ( 0.000000000000000000, 0.000000000000000000, 5.200000000000009948 ) ) ;
#104 = LOCAL_TIME ( 12, 13, 33.00000000000000000, #283 ) ;
#105 = CARTESIAN_POINT ( 'NONE',  ( 0.000000000000000000, 0.000000000000000000, 0.000000000000000000 ) ) ;
#106 = LINE ( 'NONE', #58, #76 ) ;
#107 = DIRECTION ( 'NONE',  ( 0.000000000000000000, 0.000000000000000000, 1.000000000000000000 ) ) ;
#108 =( LENGTH_UNIT ( ) NAMED_UNIT ( * ) SI_UNIT ( .MILLI., .METRE. ) );
#109 = EDGE_LOOP ( 'NONE', ( #117, #186 ) ) ;
#110 = DIRECTION ( 'NONE',  ( 0.000000000000000000, 0.000000000000000000, 1.000000000000000000 ) ) ;
#111 = SECURITY_CLASSIFICATION ( '', '', #1 ) ;
#112 = PERSON ( 'NEURÈENÝ', 'NEURÈENÝ', 'NEURÈENÝ', ('NEURÈENÝ'), ('NEURÈENÝ'), ('NEURÈENÝ') ) ;
#113 = DATE_TIME_ROLE ( 'classification_date' ) ;
#114 = PERSON_AND_ORGANIZATION ( #112, #24 ) ;
#115 = CLOSED_SHELL ( 'NONE', ( #125, #291, #251, #120, #274, #39, #85, #142, #66 ) ) ;
#116 = CALENDAR_DATE ( 2022, 7, 7 ) ;
#117 = ORIENTED_EDGE ( 'NONE', *, *, #229, .T. ) ;
#118 = CIRCLE ( 'NONE', #18, 3.200000000000000622 ) ;
#119 = APPROVAL_ROLE ( '' ) ;
#120 = ADVANCED_FACE ( 'NONE', ( #245 ), #29, .T. ) ;
#121 = DIRECTION ( 'NONE',  ( 1.000000000000000000, 0.000000000000000000, 0.000000000000000000 ) ) ;
#122 = EDGE_LOOP ( 'NONE', ( #255, #61, #264, #294 ) ) ;
#123 = AXIS2_PLACEMENT_3D ( 'NONE', #57, #249, #37 ) ;
#124 = PLANE ( 'NONE',  #49 ) ;
#125 = ADVANCED_FACE ( 'NONE', ( #239 ), #297, .F. ) ;
#126 = CARTESIAN_POINT ( 'NONE',  ( 0.000000000000000000, 0.000000000000000000, 5.200000000000009948 ) ) ;
#127 = ORIENTED_EDGE ( 'NONE', *, *, #256, .F. ) ;
#128 = CIRCLE ( 'NONE', #9, 6.000000000000000888 ) ;
#129 = PLANE ( 'NONE',  #156 ) ;
#130 = CARTESIAN_POINT ( 'NONE',  ( 0.000000000000000000, 0.000000000000000000, 5.000000000000000000 ) ) ;
#131 = DIRECTION ( 'NONE',  ( -0.000000000000000000, -0.000000000000000000, -1.000000000000000000 ) ) ;
#132 = CIRCLE ( 'NONE', #177, 3.200000000000000622 ) ;
#133 = CARTESIAN_POINT ( 'NONE',  ( 3.000000000000000444, 3.673940397442060361E-16, 5.200000000000009948 ) ) ;
#134 = EDGE_LOOP ( 'NONE', ( #64, #267, #43, #263 ) ) ;
#135 = EDGE_CURVE ( 'NONE', #270, #79, #99, .T. ) ;
#136 = VERTEX_POINT ( 'NONE', #192 ) ;
#137 = APPROVAL_STATUS ( 'not_yet_approved' ) ;
#138 = LOCAL_TIME ( 12, 13, 33.00000000000000000, #206 ) ;
#139 = DATE_AND_TIME ( #47, #104 ) ;
#140 = PERSON_AND_ORGANIZATION_ROLE ( 'creator' ) ;
#141 = CARTESIAN_POINT ( 'NONE',  ( 0.000000000000000000, 0.000000000000000000, 0.000000000000000000 ) ) ;
#142 = ADVANCED_FACE ( 'NONE', ( #52 ), #8, .T. ) ;
#143 = VERTEX_POINT ( 'NONE', #77 ) ;
#144 = ORIENTED_EDGE ( 'NONE', *, *, #196, .F. ) ;
#145 = AXIS2_PLACEMENT_3D ( 'NONE', #250, #88, #157 ) ;
#146 = CARTESIAN_POINT ( 'NONE',  ( 0.000000000000000000, 0.000000000000000000, 205.0000000000000284 ) ) ;
#147 = EDGE_CURVE ( 'NONE', #136, #79, #228, .T. ) ;
#148 = APPROVAL_PERSON_ORGANIZATION ( #46, #81, #261 ) ;
#149 = CARTESIAN_POINT ( 'NONE',  ( 0.000000000000000000, 0.000000000000000000, 5.000000000000000000 ) ) ;
#150 = ORIENTED_EDGE ( 'NONE', *, *, #152, .F. ) ;
#151 = LINE ( 'NONE', #86, #31 ) ;
#152 = EDGE_CURVE ( 'NONE', #40, #265, #28, .T. ) ;
#153 = DIRECTION ( 'NONE',  ( -0.000000000000000000, -0.000000000000000000, -1.000000000000000000 ) ) ;
#154 = LINE ( 'NONE', #276, #14 ) ;
#155 = DIRECTION ( 'NONE',  ( -0.000000000000000000, -0.000000000000000000, -1.000000000000000000 ) ) ;
#156 = AXIS2_PLACEMENT_3D ( 'NONE', #38, #12, #247 ) ;
#157 = DIRECTION ( 'NONE',  ( 1.000000000000000000, 0.000000000000000000, 0.000000000000000000 ) ) ;
#158 = APPROVAL_DATE_TIME ( #182, #81 ) ;
#159 = PERSON_AND_ORGANIZATION_ROLE ( 'design_supplier' ) ;
#160 = AXIS2_PLACEMENT_3D ( 'NONE', #171, #211, #6 ) ;
#161 = AXIS2_PLACEMENT_3D ( 'NONE', #56, #41, #277 ) ;
#162 = CALENDAR_DATE ( 2022, 7, 7 ) ;
#163 = PERSON_AND_ORGANIZATION ( #112, #24 ) ;
#164 = ORIENTED_EDGE ( 'NONE', *, *, #100, .T. ) ;
#165 = SHAPE_DEFINITION_REPRESENTATION ( #301, #222 ) ;
#166 = EDGE_LOOP ( 'NONE', ( #150, #89, #23, #209 ) ) ;
#167 = AXIS2_PLACEMENT_3D ( 'NONE', #290, #34, #210 ) ;
#168 = CC_DESIGN_PERSON_AND_ORGANIZATION_ASSIGNMENT ( #163, #140, ( #184 ) ) ;
#169 = CIRCLE ( 'NONE', #260, 3.000000000000000444 ) ;
#170 = DIRECTION ( 'NONE',  ( -1.000000000000000000, 0.000000000000000000, 0.000000000000000000 ) ) ;
#171 = CARTESIAN_POINT ( 'NONE',  ( 0.000000000000000000, 0.000000000000000000, 0.000000000000000000 ) ) ;
#172 = DIRECTION ( 'NONE',  ( -0.000000000000000000, -0.000000000000000000, -1.000000000000000000 ) ) ;
#173 = CARTESIAN_POINT ( 'NONE',  ( -6.000000000000000888, 0.000000000000000000, 5.000000000000000000 ) ) ;
#174 = ORIENTED_EDGE ( 'NONE', *, *, #147, .T. ) ;
#175 = DIRECTION ( 'NONE',  ( -0.000000000000000000, -0.000000000000000000, -1.000000000000000000 ) ) ;
#176 = FACE_OUTER_BOUND ( 'NONE', #207, .T. ) ;
#177 = AXIS2_PLACEMENT_3D ( 'NONE', #254, #17, #226 ) ;
#178 = DIRECTION ( 'NONE',  ( 1.000000000000000000, 0.000000000000000000, 0.000000000000000000 ) ) ;
#179 = EDGE_CURVE ( 'NONE', #265, #40, #35, .T. ) ;
#180 = FACE_OUTER_BOUND ( 'NONE', #122, .T. ) ;
#181 = FACE_BOUND ( 'NONE', #109, .T. ) ;
#182 = DATE_AND_TIME ( #162, #138 ) ;
#183 = APPROVAL ( #137, 'NEURÈENÝ' ) ;
#184 = PRODUCT_DEFINITION_FORMATION_WITH_SPECIFIED_SOURCE ( 'LIBOVOLNÝ', '', #189, .NOT_KNOWN. ) ;
#185 = APPROVAL_STATUS ( 'not_yet_approved' ) ;
#186 = ORIENTED_EDGE ( 'NONE', *, *, #188, .T. ) ;
#187 = PERSON_AND_ORGANIZATION ( #112, #24 ) ;
#188 = EDGE_CURVE ( 'NONE', #4, #204, #132, .T. ) ;
#189 = PRODUCT ( 'd509', 'd509', '', ( #26 ) ) ;
#190 = ORIENTED_EDGE ( 'NONE', *, *, #233, .F. ) ;
#191 = AXIS2_PLACEMENT_3D ( 'NONE', #33, #292, #170 ) ;
#192 = CARTESIAN_POINT ( 'NONE',  ( -6.000000000000000888, 0.000000000000000000, 0.000000000000000000 ) ) ;
#193 = DIRECTION ( 'NONE',  ( 0.000000000000000000, 0.000000000000000000, 1.000000000000000000 ) ) ;
#194 = ORIENTED_EDGE ( 'NONE', *, *, #233, .T. ) ;
#195 = CARTESIAN_POINT ( 'NONE',  ( -3.200000000000000622, 3.918869757271530953E-16, 5.000000000000005329 ) ) ;
#196 = EDGE_CURVE ( 'NONE', #284, #143, #169, .T. ) ;
#197 = CARTESIAN_POINT ( 'NONE',  ( 6.000000000000000888, 7.347880794884120722E-16, 5.000000000000000000 ) ) ;
#198 = VECTOR ( 'NONE', #172, 1000.000000000000000 ) ;
#199 = DIRECTION ( 'NONE',  ( -1.000000000000000000, 0.000000000000000000, 0.000000000000000000 ) ) ;
#200 = AXIS2_PLACEMENT_3D ( 'NONE', #273, #107, #178 ) ;
#201 = DIRECTION ( 'NONE',  ( 0.000000000000000000, 0.000000000000000000, 1.000000000000000000 ) ) ;
#202 = EDGE_LOOP ( 'NONE', ( #87, #190, #236, #174 ) ) ;
#203 =( NAMED_UNIT ( * ) PLANE_ANGLE_UNIT ( ) SI_UNIT ( $, .RADIAN. ) );
#204 = VERTEX_POINT ( 'NONE', #59 ) ;
#205 = DIRECTION ( 'NONE',  ( 1.000000000000000000, 0.000000000000000000, 0.000000000000000000 ) ) ;
#206 = COORDINATED_UNIVERSAL_TIME_OFFSET ( 1, 0, .AHEAD. ) ;
#207 = EDGE_LOOP ( 'NONE', ( #194, #164 ) ) ;
#208 = PERSON_AND_ORGANIZATION ( #112, #24 ) ;
#209 = ORIENTED_EDGE ( 'NONE', *, *, #246, .F. ) ;
#210 = DIRECTION ( 'NONE',  ( -1.000000000000000000, 0.000000000000000000, 0.000000000000000000 ) ) ;
#211 = DIRECTION ( 'NONE',  ( 0.000000000000000000, 0.000000000000000000, 1.000000000000000000 ) ) ;
#212 = CC_DESIGN_DATE_AND_TIME_ASSIGNMENT ( #139, #307, ( #92 ) ) ;
#213 = PRODUCT_RELATED_PRODUCT_CATEGORY ( 'detail', '', ( #189 ) ) ;
#214 = DIRECTION ( 'NONE',  ( 1.000000000000000000, 0.000000000000000000, 0.000000000000000000 ) ) ;
#215 = CARTESIAN_POINT ( 'NONE',  ( 6.000000000000000888, 7.347880794884120722E-16, 5.000000000000000000 ) ) ;
#216 = TOROIDAL_SURFACE ( 'NONE', #235, 3.200000000000000622, 0.2000000000000000111 ) ;
#217 = EDGE_CURVE ( 'NONE', #284, #204, #288, .T. ) ;
#218 = DIRECTION ( 'NONE',  ( 0.000000000000000000, 0.000000000000000000, 1.000000000000000000 ) ) ;
#219 = CC_DESIGN_APPROVAL ( #183, ( #111 ) ) ;
#220 = CARTESIAN_POINT ( 'NONE',  ( 0.000000000000000000, 0.000000000000000000, 205.0000000000000284 ) ) ;
#221 = DIRECTION ( 'NONE',  ( -0.000000000000000000, -0.000000000000000000, -1.000000000000000000 ) ) ;
#222 = ADVANCED_BREP_SHAPE_REPRESENTATION ( 'd509', ( #30, #243 ), #69 ) ;
#223 = CC_DESIGN_APPROVAL ( #25, ( #184 ) ) ;
#224 = DIRECTION ( 'NONE',  ( 1.000000000000000000, 0.000000000000000000, 0.000000000000000000 ) ) ;
#225 = ORIENTED_EDGE ( 'NONE', *, *, #147, .F. ) ;
#226 = DIRECTION ( 'NONE',  ( 1.000000000000000000, 0.000000000000000000, 0.000000000000000000 ) ) ;
#227 = ORIENTED_EDGE ( 'NONE', *, *, #246, .T. ) ;
#228 = CIRCLE ( 'NONE', #160, 6.000000000000000888 ) ;
#229 = EDGE_CURVE ( 'NONE', #204, #4, #118, .T. ) ;
#230 = CIRCLE ( 'NONE', #161, 0.2000000000000000944 ) ;
#231 = APPROVAL_DATE_TIME ( #70, #25 ) ;
#232 = COORDINATED_UNIVERSAL_TIME_OFFSET ( 1, 0, .AHEAD. ) ;
#233 = EDGE_CURVE ( 'NONE', #98, #270, #128, .T. ) ;
#234 = PERSON_AND_ORGANIZATION_ROLE ( 'classification_officer' ) ;
#235 = AXIS2_PLACEMENT_3D ( 'NONE', #103, #242, #214 ) ;
#236 = ORIENTED_EDGE ( 'NONE', *, *, #266, .T. ) ;
#237 = APPROVAL_PERSON_ORGANIZATION ( #114, #183, #19 ) ;
#238 = PERSON_AND_ORGANIZATION_ROLE ( 'design_owner' ) ;
#239 = FACE_OUTER_BOUND ( 'NONE', #134, .T. ) ;
#240 = APPLICATION_CONTEXT ( 'configuration controlled 3d designs of mechanical parts and assemblies' ) ;
#241 = CC_DESIGN_DATE_AND_TIME_ASSIGNMENT ( #91, #113, ( #111 ) ) ;
#242 = DIRECTION ( 'NONE',  ( 0.000000000000000000, 0.000000000000000000, 1.000000000000000000 ) ) ;
#243 = AXIS2_PLACEMENT_3D ( 'NONE', #141, #96, #65 ) ;
#244 = FACE_OUTER_BOUND ( 'NONE', #5, .T. ) ;
#245 = FACE_OUTER_BOUND ( 'NONE', #202, .T. ) ;
#246 = EDGE_CURVE ( 'NONE', #265, #143, #154, .T. ) ;
#247 = DIRECTION ( 'NONE',  ( 1.000000000000000000, 0.000000000000000000, -0.000000000000000000 ) ) ;
#248 = LOCAL_TIME ( 12, 13, 33.00000000000000000, #232 ) ;
#249 = DIRECTION ( 'NONE',  ( 0.000000000000000000, -1.000000000000000000, 0.000000000000000000 ) ) ;
#250 = CARTESIAN_POINT ( 'NONE',  ( 0.000000000000000000, 0.000000000000000000, 205.0000000000000284 ) ) ;
#251 = ADVANCED_FACE ( 'NONE', ( #180 ), #252, .T. ) ;
#252 = CYLINDRICAL_SURFACE ( 'NONE', #282, 6.000000000000000888 ) ;
#253 = AXIS2_PLACEMENT_3D ( 'NONE', #300, #201, #63 ) ;
#254 = CARTESIAN_POINT ( 'NONE',  ( 0.000000000000000000, 0.000000000000000000, 5.000000000000000000 ) ) ;
#255 = ORIENTED_EDGE ( 'NONE', *, *, #100, .F. ) ;
#256 = EDGE_CURVE ( 'NONE', #143, #4, #230, .T. ) ;
#257 = APPLICATION_PROTOCOL_DEFINITION ( 'international standard', 'config_control_design', 1994, #306 ) ;
#258 = CIRCLE ( 'NONE', #304, 6.000000000000000888 ) ;
#259 = PERSON_AND_ORGANIZATION ( #112, #24 ) ;
#260 = AXIS2_PLACEMENT_3D ( 'NONE', #42, #110, #84 ) ;
#261 = APPROVAL_ROLE ( '' ) ;
#262 = CALENDAR_DATE ( 2022, 7, 7 ) ;
#263 = ORIENTED_EDGE ( 'NONE', *, *, #217, .F. ) ;
#264 = ORIENTED_EDGE ( 'NONE', *, *, #20, .T. ) ;
#265 = VERTEX_POINT ( 'NONE', #272 ) ;
#266 = EDGE_CURVE ( 'NONE', #98, #136, #151, .T. ) ;
#267 = ORIENTED_EDGE ( 'NONE', *, *, #256, .T. ) ;
#268 = CARTESIAN_POINT ( 'NONE',  ( 3.000000000000000444, 3.673940397442060361E-16, 205.0000000000000284 ) ) ;
#269 = AXIS2_PLACEMENT_3D ( 'NONE', #220, #275, #199 ) ;
#270 = VERTEX_POINT ( 'NONE', #197 ) ;
#271 = CARTESIAN_POINT ( 'NONE',  ( 6.000000000000000888, 7.347880794884120722E-16, 0.000000000000000000 ) ) ;
#272 = CARTESIAN_POINT ( 'NONE',  ( -3.000000000000000444, 0.000000000000000000, 205.0000000000000284 ) ) ;
#273 = CARTESIAN_POINT ( 'NONE',  ( 0.000000000000000000, 0.000000000000000000, 5.200000000000009948 ) ) ;
#274 = ADVANCED_FACE ( 'NONE', ( #181, #176 ), #129, .T. ) ;
#275 = DIRECTION ( 'NONE',  ( -0.000000000000000000, -0.000000000000000000, -1.000000000000000000 ) ) ;
#276 = CARTESIAN_POINT ( 'NONE',  ( -3.000000000000000444, 0.000000000000000000, 205.0000000000000284 ) ) ;
#277 = DIRECTION ( 'NONE',  ( -1.000000000000000000, 1.224646799147353207E-16, 0.000000000000000000 ) ) ;
#278 = LOCAL_TIME ( 12, 13, 33.00000000000000000, #22 ) ;
#279 = APPLICATION_PROTOCOL_DEFINITION ( 'international standard', 'config_control_design', 1994, #240 ) ;
#280 = AXIS2_PLACEMENT_3D ( 'NONE', #146, #80, #289 ) ;
#281 = PERSON_AND_ORGANIZATION_ROLE ( 'creator' ) ;
#282 = AXIS2_PLACEMENT_3D ( 'NONE', #82, #175, #11 ) ;
#283 = COORDINATED_UNIVERSAL_TIME_OFFSET ( 1, 0, .AHEAD. ) ;
#284 = VERTEX_POINT ( 'NONE', #133 ) ;
#285 = DATE_AND_TIME ( #116, #278 ) ;
#286 = EDGE_LOOP ( 'NONE', ( #48, #16 ) ) ;
#287 = EDGE_CURVE ( 'NONE', #143, #284, #293, .T. ) ;
#288 = CIRCLE ( 'NONE', #123, 0.1999999999999996503 ) ;
#289 = DIRECTION ( 'NONE',  ( 1.000000000000000000, 0.000000000000000000, -0.000000000000000000 ) ) ;
#290 = CARTESIAN_POINT ( 'NONE',  ( 0.000000000000000000, 0.000000000000000000, 205.0000000000000284 ) ) ;
#291 = ADVANCED_FACE ( 'NONE', ( #36 ), #299, .T. ) ;
#292 = DIRECTION ( 'NONE',  ( -0.000000000000000000, -0.000000000000000000, -1.000000000000000000 ) ) ;
#293 = CIRCLE ( 'NONE', #200, 3.000000000000000444 ) ;
#294 = ORIENTED_EDGE ( 'NONE', *, *, #266, .F. ) ;
#295 = DIRECTION ( 'NONE',  ( 0.000000000000000000, 0.000000000000000000, 1.000000000000000000 ) ) ;
#296 = CARTESIAN_POINT ( 'NONE',  ( 0.000000000000000000, 0.000000000000000000, 5.000000000000000000 ) ) ;
#297 = TOROIDAL_SURFACE ( 'NONE', #74, 3.200000000000000622, 0.2000000000000000111 ) ;
#298 = CC_DESIGN_PERSON_AND_ORGANIZATION_ASSIGNMENT ( #305, #159, ( #184 ) ) ;
#299 = CYLINDRICAL_SURFACE ( 'NONE', #269, 3.000000000000000444 ) ;
#300 = CARTESIAN_POINT ( 'NONE',  ( 0.000000000000000000, 0.000000000000000000, 205.0000000000000284 ) ) ;
#301 = PRODUCT_DEFINITION_SHAPE ( 'NONE', 'NONE',  #92 ) ;
#302 = ORIENTED_EDGE ( 'NONE', *, *, #20, .F. ) ;
#303 = EDGE_CURVE ( 'NONE', #40, #284, #106, .T. ) ;
#304 = AXIS2_PLACEMENT_3D ( 'NONE', #149, #295, #54 ) ;
#305 = PERSON_AND_ORGANIZATION ( #112, #24 ) ;
#306 = APPLICATION_CONTEXT ( 'configuration controlled 3d designs of mechanical parts and assemblies' ) ;
#307 = DATE_TIME_ROLE ( 'creation_date' ) ;
ENDSEC;
END-ISO-10303-21;
