ISO-10303-21;
HEADER;
FILE_DESCRIPTION (( 'STEP AP203' ),
    '1' );
FILE_NAME ('b8cf.STEP',
    '2022-07-07T09:43:15',
    ( '' ),
    ( '' ),
    'SwSTEP 2.0',
    'SolidWorks 2019',
    '' );
FILE_SCHEMA (( 'CONFIG_CONTROL_DESIGN' ));
ENDSEC;

DATA;
#1 = MECHANICAL_CONTEXT ( 'NONE', #59, 'mechanical' ) ;
#2 = CC_DESIGN_PERSON_AND_ORGANIZATION_ASSIGNMENT ( #167, #68, ( #283 ) ) ;
#3 = FACE_OUTER_BOUND ( 'NONE', #5, .T. ) ;
#4 = AXIS2_PLACEMENT_3D ( 'NONE', #202, #88, #280 ) ;
#5 = EDGE_LOOP ( 'NONE', ( #26, #78, #269, #195 ) ) ;
#6 = ORIENTED_EDGE ( 'NONE', *, *, #182, .F. ) ;
#7 = VECTOR ( 'NONE', #83, 1000.000000000000000 ) ;
#8 = ORIENTED_EDGE ( 'NONE', *, *, #237, .T. ) ;
#9 = SECURITY_CLASSIFICATION ( '', '', #153 ) ;
#10 = PERSON_AND_ORGANIZATION ( #170, #58 ) ;
#11 = DIRECTION ( 'NONE',  ( 0.000000000000000000, 0.000000000000000000, 1.000000000000000000 ) ) ;
#12 = CARTESIAN_POINT ( 'NONE',  ( 0.000000000000000000, 0.000000000000000000, 7.000000000000000000 ) ) ;
#13 = EDGE_CURVE ( 'NONE', #41, #102, #247, .T. ) ;
#14 = ORIENTED_EDGE ( 'NONE', *, *, #159, .T. ) ;
#15 = FACE_OUTER_BOUND ( 'NONE', #81, .T. ) ;
#16 = APPROVAL_DATE_TIME ( #305, #50 ) ;
#17 = FACE_OUTER_BOUND ( 'NONE', #77, .T. ) ;
#18 = CARTESIAN_POINT ( 'NONE',  ( 0.000000000000000000, 0.000000000000000000, 7.000000000000000000 ) ) ;
#19 = CARTESIAN_POINT ( 'NONE',  ( -6.250000000000000000, 0.000000000000000000, 132.0000000000000000 ) ) ;
#20 = ORIENTED_EDGE ( 'NONE', *, *, #260, .F. ) ;
#21 = FACE_OUTER_BOUND ( 'NONE', #66, .T. ) ;
#22 = TOROIDAL_SURFACE ( 'NONE', #116, 6.450000000000000178, 0.2000000000000000111 ) ;
#23 = LOCAL_TIME ( 11, 43, 15.00000000000000000, #250 ) ;
#24 = APPROVAL ( #43, 'NEURÈENÝ' ) ;
#25 = ADVANCED_BREP_SHAPE_REPRESENTATION ( 'b8cf', ( #127, #113 ), #152 ) ;
#26 = ORIENTED_EDGE ( 'NONE', *, *, #159, .F. ) ;
#27 = ORIENTED_EDGE ( 'NONE', *, *, #106, .F. ) ;
#28 = DIRECTION ( 'NONE',  ( -0.000000000000000000, -0.000000000000000000, -1.000000000000000000 ) ) ;
#29 = DIRECTION ( 'NONE',  ( 0.000000000000000000, 0.000000000000000000, 1.000000000000000000 ) ) ;
#30 = AXIS2_PLACEMENT_3D ( 'NONE', #183, #69, #163 ) ;
#31 = APPROVAL ( #255, 'NEURÈENÝ' ) ;
#32 = DATE_TIME_ROLE ( 'creation_date' ) ;
#33 = AXIS2_PLACEMENT_3D ( 'NONE', #161, #134, #298 ) ;
#34 = LINE ( 'NONE', #46, #79 ) ;
#35 = SHAPE_DEFINITION_REPRESENTATION ( #214, #25 ) ;
#36 = DIRECTION ( 'NONE',  ( 1.000000000000000000, 0.000000000000000000, 0.000000000000000000 ) ) ;
#37 = ADVANCED_FACE ( 'NONE', ( #175 ), #268, .F. ) ;
#38 = ORIENTED_EDGE ( 'NONE', *, *, #297, .F. ) ;
#39 = DIRECTION ( 'NONE',  ( -1.000000000000000000, 0.000000000000000000, 0.000000000000000000 ) ) ;
#40 = CALENDAR_DATE ( 2022, 7, 7 ) ;
#41 = VERTEX_POINT ( 'NONE', #122 ) ;
#42 = CARTESIAN_POINT ( 'NONE',  ( 0.000000000000000000, 0.000000000000000000, 132.0000000000000000 ) ) ;
#43 = APPROVAL_STATUS ( 'not_yet_approved' ) ;
#44 = LOCAL_TIME ( 11, 43, 15.00000000000000000, #157 ) ;
#45 = VERTEX_POINT ( 'NONE', #99 ) ;
#46 = CARTESIAN_POINT ( 'NONE',  ( -6.250000000000000000, 0.000000000000000000, 132.0000000000000000 ) ) ;
#47 = ADVANCED_FACE ( 'NONE', ( #3 ), #271, .T. ) ;
#48 = EDGE_LOOP ( 'NONE', ( #205, #63 ) ) ;
#49 = DIRECTION ( 'NONE',  ( -0.000000000000000000, -0.000000000000000000, -1.000000000000000000 ) ) ;
#50 = APPROVAL ( #232, 'NEURÈENÝ' ) ;
#51 = AXIS2_PLACEMENT_3D ( 'NONE', #278, #256, #206 ) ;
#52 = EDGE_CURVE ( 'NONE', #102, #41, #120, .T. ) ;
#53 = ORIENTED_EDGE ( 'NONE', *, *, #260, .T. ) ;
#54 = DIRECTION ( 'NONE',  ( 0.000000000000000000, 0.000000000000000000, 1.000000000000000000 ) ) ;
#55 = VERTEX_POINT ( 'NONE', #225 ) ;
#56 = EDGE_LOOP ( 'NONE', ( #172, #210, #173, #53 ) ) ;
#57 = CC_DESIGN_DATE_AND_TIME_ASSIGNMENT ( #128, #32, ( #133 ) ) ;
#58 = ORGANIZATION ( 'NEURÈENÝ', 'NEURÈENÝ', '' ) ;
#59 = APPLICATION_CONTEXT ( 'configuration controlled 3d designs of mechanical parts and assemblies' ) ;
#60 = PERSON_AND_ORGANIZATION_ROLE ( 'classification_officer' ) ;
#61 = CALENDAR_DATE ( 2022, 7, 7 ) ;
#62 = APPROVAL_PERSON_ORGANIZATION ( #184, #24, #279 ) ;
#63 = ORIENTED_EDGE ( 'NONE', *, *, #272, .T. ) ;
#64 = CYLINDRICAL_SURFACE ( 'NONE', #300, 9.000000000000000000 ) ;
#65 = ORIENTED_EDGE ( 'NONE', *, *, #272, .F. ) ;
#66 = EDGE_LOOP ( 'NONE', ( #8, #103 ) ) ;
#67 = CARTESIAN_POINT ( 'NONE',  ( 0.000000000000000000, 0.000000000000000000, 7.000000000000000000 ) ) ;
#68 = PERSON_AND_ORGANIZATION_ROLE ( 'design_owner' ) ;
#69 = DIRECTION ( 'NONE',  ( 0.000000000000000000, 0.000000000000000000, 1.000000000000000000 ) ) ;
#70 = DIRECTION ( 'NONE',  ( 1.000000000000000000, 0.000000000000000000, 0.000000000000000000 ) ) ;
#71 = CLOSED_SHELL ( 'NONE', ( #97, #193, #244, #105, #303, #37, #47, #121, #126 ) ) ;
#72 = EDGE_CURVE ( 'NONE', #115, #55, #198, .T. ) ;
#73 = DIRECTION ( 'NONE',  ( -0.000000000000000000, -0.000000000000000000, -1.000000000000000000 ) ) ;
#74 = LINE ( 'NONE', #145, #226 ) ;
#75 = CIRCLE ( 'NONE', #33, 6.250000000000000000 ) ;
#76 = ORIENTED_EDGE ( 'NONE', *, *, #80, .T. ) ;
#77 = EDGE_LOOP ( 'NONE', ( #277, #281 ) ) ;
#78 = ORIENTED_EDGE ( 'NONE', *, *, #136, .F. ) ;
#79 = VECTOR ( 'NONE', #306, 1000.000000000000000 ) ;
#80 = EDGE_CURVE ( 'NONE', #55, #238, #192, .T. ) ;
#81 = EDGE_LOOP ( 'NONE', ( #160, #291, #100, #65 ) ) ;
#82 = APPROVAL_PERSON_ORGANIZATION ( #132, #50, #200 ) ;
#83 = DIRECTION ( 'NONE',  ( -0.000000000000000000, -0.000000000000000000, -1.000000000000000000 ) ) ;
#84 = AXIS2_PLACEMENT_3D ( 'NONE', #245, #149, #119 ) ;
#85 = CALENDAR_DATE ( 2022, 7, 7 ) ;
#86 = FACE_OUTER_BOUND ( 'NONE', #56, .T. ) ;
#87 = CALENDAR_DATE ( 2022, 7, 7 ) ;
#88 = DIRECTION ( 'NONE',  ( 0.000000000000000000, -1.000000000000000000, 0.000000000000000000 ) ) ;
#89 = COORDINATED_UNIVERSAL_TIME_OFFSET ( 1, 0, .AHEAD. ) ;
#90 = CC_DESIGN_SECURITY_CLASSIFICATION ( #9, ( #302 ) ) ;
#91 = CC_DESIGN_PERSON_AND_ORGANIZATION_ASSIGNMENT ( #164, #60, ( #9 ) ) ;
#92 = VERTEX_POINT ( 'NONE', #254 ) ;
#93 = DIRECTION ( 'NONE',  ( 0.000000000000000000, 0.000000000000000000, 1.000000000000000000 ) ) ;
#94 = CARTESIAN_POINT ( 'NONE',  ( 0.000000000000000000, 0.000000000000000000, 132.0000000000000000 ) ) ;
#95 = DIRECTION ( 'NONE',  ( -1.000000000000000000, 0.000000000000000000, 0.000000000000000000 ) ) ;
#96 = AXIS2_PLACEMENT_3D ( 'NONE', #249, #29, #123 ) ;
#97 = ADVANCED_FACE ( 'NONE', ( #209 ), #125, .F. ) ;
#98 = DIRECTION ( 'NONE',  ( 1.000000000000000000, 0.000000000000000000, 0.000000000000000000 ) ) ;
#99 = CARTESIAN_POINT ( 'NONE',  ( -9.000000000000000000, 0.000000000000000000, 7.000000000000000000 ) ) ;
#100 = ORIENTED_EDGE ( 'NONE', *, *, #219, .T. ) ;
#101 = AXIS2_PLACEMENT_3D ( 'NONE', #67, #282, #285 ) ;
#102 = VERTEX_POINT ( 'NONE', #201 ) ;
#103 = ORIENTED_EDGE ( 'NONE', *, *, #182, .T. ) ;
#104 = ORIENTED_EDGE ( 'NONE', *, *, #80, .F. ) ;
#105 = ADVANCED_FACE ( 'NONE', ( #86 ), #64, .T. ) ;
#106 = EDGE_CURVE ( 'NONE', #290, #293, #204, .T. ) ;
#107 = FACE_OUTER_BOUND ( 'NONE', #248, .T. ) ;
#108 = PERSON_AND_ORGANIZATION ( #170, #58 ) ;
#109 = DIRECTION ( 'NONE',  ( -1.000000000000000000, 0.000000000000000000, 0.000000000000000000 ) ) ;
#110 = CALENDAR_DATE ( 2022, 7, 7 ) ;
#111 = DIRECTION ( 'NONE',  ( 1.000000000000000000, 0.000000000000000000, 0.000000000000000000 ) ) ;
#112 = DATE_AND_TIME ( #87, #270 ) ;
#113 = AXIS2_PLACEMENT_3D ( 'NONE', #144, #242, #98 ) ;
#114 = DIRECTION ( 'NONE',  ( 1.000000000000000000, 0.000000000000000000, 0.000000000000000000 ) ) ;
#115 = VERTEX_POINT ( 'NONE', #258 ) ;
#116 = AXIS2_PLACEMENT_3D ( 'NONE', #130, #93, #114 ) ;
#117 = AXIS2_PLACEMENT_3D ( 'NONE', #187, #218, #70 ) ;
#118 = PLANE ( 'NONE',  #177 ) ;
#119 = DIRECTION ( 'NONE',  ( 1.000000000000000000, 0.000000000000000000, 0.000000000000000000 ) ) ;
#120 = CIRCLE ( 'NONE', #96, 6.250000000000000000 ) ;
#121 = ADVANCED_FACE ( 'NONE', ( #17 ), #239, .T. ) ;
#122 = CARTESIAN_POINT ( 'NONE',  ( 6.250000000000000000, 7.654042494670957606E-16, 7.199999999999998401 ) ) ;
#123 = DIRECTION ( 'NONE',  ( 1.000000000000000000, 0.000000000000000000, 0.000000000000000000 ) ) ;
#124 = DIRECTION ( 'NONE',  ( -1.000000000000000000, 0.000000000000000000, 0.000000000000000000 ) ) ;
#125 = TOROIDAL_SURFACE ( 'NONE', #30, 6.450000000000000178, 0.2000000000000000111 ) ;
#126 = ADVANCED_FACE ( 'NONE', ( #15 ), #22, .F. ) ;
#127 = MANIFOLD_SOLID_BREP ( 'Zaoblit1', #71 ) ;
#128 = DATE_AND_TIME ( #61, #23 ) ;
#129 = CIRCLE ( 'NONE', #213, 6.450000000000000178 ) ;
#130 = CARTESIAN_POINT ( 'NONE',  ( 0.000000000000000000, 0.000000000000000000, 7.199999999999998401 ) ) ;
#131 = DIRECTION ( 'NONE',  ( 1.000000000000000000, 0.000000000000000000, 0.000000000000000000 ) ) ;
#132 = PERSON_AND_ORGANIZATION ( #170, #58 ) ;
#133 = PRODUCT_DEFINITION ( 'NEZNÁMÝ', '', #302, #176 ) ;
#134 = DIRECTION ( 'NONE',  ( 0.000000000000000000, 0.000000000000000000, 1.000000000000000000 ) ) ;
#135 = APPLICATION_PROTOCOL_DEFINITION ( 'international standard', 'config_control_design', 1994, #223 ) ;
#136 = EDGE_CURVE ( 'NONE', #293, #290, #75, .T. ) ;
#137 = DIRECTION ( 'NONE',  ( 0.000000000000000000, 0.000000000000000000, 1.000000000000000000 ) ) ;
#138 = PERSON_AND_ORGANIZATION_ROLE ( 'creator' ) ;
#139 = CC_DESIGN_APPROVAL ( #24, ( #9 ) ) ;
#140 = VERTEX_POINT ( 'NONE', #165 ) ;
#141 = CARTESIAN_POINT ( 'NONE',  ( 6.250000000000000000, 7.654042494670957606E-16, 132.0000000000000000 ) ) ;
#142 =( NAMED_UNIT ( * ) SI_UNIT ( $, .STERADIAN. ) SOLID_ANGLE_UNIT ( ) );
#143 = EDGE_LOOP ( 'NONE', ( #20, #104 ) ) ;
#144 = CARTESIAN_POINT ( 'NONE',  ( 0.000000000000000000, 0.000000000000000000, 0.000000000000000000 ) ) ;
#145 = CARTESIAN_POINT ( 'NONE',  ( -9.000000000000000000, 0.000000000000000000, 7.000000000000000000 ) ) ;
#146 = CC_DESIGN_PERSON_AND_ORGANIZATION_ASSIGNMENT ( #10, #296, ( #302 ) ) ;
#147 = ORIENTED_EDGE ( 'NONE', *, *, #13, .T. ) ;
#148 = DIRECTION ( 'NONE',  ( 1.000000000000000000, 0.000000000000000000, -0.000000000000000000 ) ) ;
#149 = DIRECTION ( 'NONE',  ( 0.000000000000000000, 0.000000000000000000, 1.000000000000000000 ) ) ;
#150 = ORIENTED_EDGE ( 'NONE', *, *, #151, .F. ) ;
#151 = EDGE_CURVE ( 'NONE', #92, #140, #129, .T. ) ;
#152 =( GEOMETRIC_REPRESENTATION_CONTEXT ( 3 ) GLOBAL_UNCERTAINTY_ASSIGNED_CONTEXT ( ( #169 ) ) GLOBAL_UNIT_ASSIGNED_CONTEXT ( ( #211, #266, #142 ) ) REPRESENTATION_CONTEXT ( 'NONE', 'WORKASPACE' ) );
#153 = SECURITY_CLASSIFICATION_LEVEL ( 'unclassified' ) ;
#154 = AXIS2_PLACEMENT_3D ( 'NONE', #12, #11, #111 ) ;
#155 = PRODUCT_RELATED_PRODUCT_CATEGORY ( 'detail', '', ( #283 ) ) ;
#156 = DIRECTION ( 'NONE',  ( -0.000000000000000000, -0.000000000000000000, -1.000000000000000000 ) ) ;
#157 = COORDINATED_UNIVERSAL_TIME_OFFSET ( 1, 0, .AHEAD. ) ;
#158 = AXIS2_PLACEMENT_3D ( 'NONE', #216, #49, #95 ) ;
#159 = EDGE_CURVE ( 'NONE', #290, #41, #186, .T. ) ;
#160 = ORIENTED_EDGE ( 'NONE', *, *, #233, .F. ) ;
#161 = CARTESIAN_POINT ( 'NONE',  ( 0.000000000000000000, 0.000000000000000000, 132.0000000000000000 ) ) ;
#162 = EDGE_CURVE ( 'NONE', #293, #102, #34, .T. ) ;
#163 = DIRECTION ( 'NONE',  ( 1.000000000000000000, 0.000000000000000000, 0.000000000000000000 ) ) ;
#164 = PERSON_AND_ORGANIZATION ( #170, #58 ) ;
#165 = CARTESIAN_POINT ( 'NONE',  ( -6.450000000000000178, 7.898971854500428692E-16, 6.999999999999999112 ) ) ;
#166 = DIRECTION ( 'NONE',  ( 0.000000000000000000, 0.000000000000000000, 1.000000000000000000 ) ) ;
#167 = PERSON_AND_ORGANIZATION ( #170, #58 ) ;
#168 = FACE_BOUND ( 'NONE', #48, .T. ) ;
#169 = UNCERTAINTY_MEASURE_WITH_UNIT (LENGTH_MEASURE( 1.000000000000000082E-05 ), #211, 'distance_accuracy_value', 'NONE');
#170 = PERSON ( 'NEURÈENÝ', 'NEURÈENÝ', 'NEURÈENÝ', ('NEURÈENÝ'), ('NEURÈENÝ'), ('NEURÈENÝ') ) ;
#171 = ORIENTED_EDGE ( 'NONE', *, *, #162, .F. ) ;
#172 = ORIENTED_EDGE ( 'NONE', *, *, #72, .F. ) ;
#173 = ORIENTED_EDGE ( 'NONE', *, *, #297, .T. ) ;
#174 = AXIS2_PLACEMENT_3D ( 'NONE', #42, #137, #179 ) ;
#175 = FACE_OUTER_BOUND ( 'NONE', #143, .T. ) ;
#176 = DESIGN_CONTEXT ( 'detailed design', #223, 'design' ) ;
#177 = AXIS2_PLACEMENT_3D ( 'NONE', #18, #166, #264 ) ;
#178 = DATE_AND_TIME ( #85, #273 ) ;
#179 = DIRECTION ( 'NONE',  ( 1.000000000000000000, 0.000000000000000000, -0.000000000000000000 ) ) ;
#180 = AXIS2_PLACEMENT_3D ( 'NONE', #191, #288, #131 ) ;
#181 = EDGE_LOOP ( 'NONE', ( #267, #196, #150, #194 ) ) ;
#182 = EDGE_CURVE ( 'NONE', #115, #45, #251, .T. ) ;
#183 = CARTESIAN_POINT ( 'NONE',  ( 0.000000000000000000, 0.000000000000000000, 7.199999999999998401 ) ) ;
#184 = PERSON_AND_ORGANIZATION ( #170, #58 ) ;
#185 = CIRCLE ( 'NONE', #4, 0.1999999999999996503 ) ;
#186 = LINE ( 'NONE', #141, #197 ) ;
#187 = CARTESIAN_POINT ( 'NONE',  ( 0.000000000000000000, 0.000000000000000000, 7.000000000000000000 ) ) ;
#188 = AXIS2_PLACEMENT_3D ( 'NONE', #240, #284, #307 ) ;
#189 = APPLICATION_PROTOCOL_DEFINITION ( 'international standard', 'config_control_design', 1994, #59 ) ;
#190 = CARTESIAN_POINT ( 'NONE',  ( -9.000000000000000000, 0.000000000000000000, 0.000000000000000000 ) ) ;
#191 = CARTESIAN_POINT ( 'NONE',  ( 0.000000000000000000, 0.000000000000000000, 0.000000000000000000 ) ) ;
#192 = CIRCLE ( 'NONE', #180, 9.000000000000000000 ) ;
#193 = ADVANCED_FACE ( 'NONE', ( #107 ), #229, .T. ) ;
#194 = ORIENTED_EDGE ( 'NONE', *, *, #219, .F. ) ;
#195 = ORIENTED_EDGE ( 'NONE', *, *, #52, .T. ) ;
#196 = ORIENTED_EDGE ( 'NONE', *, *, #233, .T. ) ;
#197 = VECTOR ( 'NONE', #227, 1000.000000000000000 ) ;
#198 = LINE ( 'NONE', #224, #7 ) ;
#199 = APPROVAL_PERSON_ORGANIZATION ( #299, #31, #259 ) ;
#200 = APPROVAL_ROLE ( '' ) ;
#201 = CARTESIAN_POINT ( 'NONE',  ( -6.250000000000000000, 0.000000000000000000, 7.199999999999998401 ) ) ;
#202 = CARTESIAN_POINT ( 'NONE',  ( 6.450000000000000178, 0.000000000000000000, 7.199999999999998401 ) ) ;
#203 = APPROVAL_DATE_TIME ( #236, #24 ) ;
#204 = CIRCLE ( 'NONE', #292, 6.250000000000000000 ) ;
#205 = ORIENTED_EDGE ( 'NONE', *, *, #151, .T. ) ;
#206 = DIRECTION ( 'NONE',  ( -1.000000000000000000, 1.224646799147353454E-16, 0.000000000000000000 ) ) ;
#207 = APPROVAL_DATE_TIME ( #178, #31 ) ;
#208 = CIRCLE ( 'NONE', #51, 0.1999999999999996503 ) ;
#209 = FACE_OUTER_BOUND ( 'NONE', #181, .T. ) ;
#210 = ORIENTED_EDGE ( 'NONE', *, *, #237, .F. ) ;
#211 =( LENGTH_UNIT ( ) NAMED_UNIT ( * ) SI_UNIT ( .MILLI., .METRE. ) );
#212 = AXIS2_PLACEMENT_3D ( 'NONE', #222, #28, #124 ) ;
#213 = AXIS2_PLACEMENT_3D ( 'NONE', #252, #231, #36 ) ;
#214 = PRODUCT_DEFINITION_SHAPE ( 'NONE', 'NONE',  #133 ) ;
#215 = CC_DESIGN_DATE_AND_TIME_ASSIGNMENT ( #112, #228, ( #9 ) ) ;
#216 = CARTESIAN_POINT ( 'NONE',  ( 0.000000000000000000, 0.000000000000000000, 7.000000000000000000 ) ) ;
#217 = CIRCLE ( 'NONE', #117, 6.450000000000000178 ) ;
#218 = DIRECTION ( 'NONE',  ( -0.000000000000000000, -0.000000000000000000, -1.000000000000000000 ) ) ;
#219 = EDGE_CURVE ( 'NONE', #41, #92, #185, .T. ) ;
#220 = ORIENTED_EDGE ( 'NONE', *, *, #72, .T. ) ;
#221 = CC_DESIGN_APPROVAL ( #31, ( #302 ) ) ;
#222 = CARTESIAN_POINT ( 'NONE',  ( 0.000000000000000000, 0.000000000000000000, 132.0000000000000000 ) ) ;
#223 = APPLICATION_CONTEXT ( 'configuration controlled 3d designs of mechanical parts and assemblies' ) ;
#224 = CARTESIAN_POINT ( 'NONE',  ( 9.000000000000000000, 1.102182119232617714E-15, 7.000000000000000000 ) ) ;
#225 = CARTESIAN_POINT ( 'NONE',  ( 9.000000000000000000, 1.102182119232617714E-15, 0.000000000000000000 ) ) ;
#226 = VECTOR ( 'NONE', #73, 1000.000000000000000 ) ;
#227 = DIRECTION ( 'NONE',  ( -0.000000000000000000, -0.000000000000000000, -1.000000000000000000 ) ) ;
#228 = DATE_TIME_ROLE ( 'classification_date' ) ;
#229 = CYLINDRICAL_SURFACE ( 'NONE', #289, 6.250000000000000000 ) ;
#230 = COORDINATED_UNIVERSAL_TIME_OFFSET ( 1, 0, .AHEAD. ) ;
#231 = DIRECTION ( 'NONE',  ( -0.000000000000000000, -0.000000000000000000, -1.000000000000000000 ) ) ;
#232 = APPROVAL_STATUS ( 'not_yet_approved' ) ;
#233 = EDGE_CURVE ( 'NONE', #102, #140, #208, .T. ) ;
#234 = CIRCLE ( 'NONE', #101, 9.000000000000000000 ) ;
#235 = CARTESIAN_POINT ( 'NONE',  ( 0.000000000000000000, 0.000000000000000000, 132.0000000000000000 ) ) ;
#236 = DATE_AND_TIME ( #40, #243 ) ;
#237 = EDGE_CURVE ( 'NONE', #45, #115, #234, .T. ) ;
#238 = VERTEX_POINT ( 'NONE', #190 ) ;
#239 = PLANE ( 'NONE',  #174 ) ;
#240 = CARTESIAN_POINT ( 'NONE',  ( 0.000000000000000000, 0.000000000000000000, 0.000000000000000000 ) ) ;
#241 = CARTESIAN_POINT ( 'NONE',  ( 6.250000000000000000, 7.654042494670957606E-16, 132.0000000000000000 ) ) ;
#242 = DIRECTION ( 'NONE',  ( 0.000000000000000000, 0.000000000000000000, 1.000000000000000000 ) ) ;
#243 = LOCAL_TIME ( 11, 43, 15.00000000000000000, #230 ) ;
#244 = ADVANCED_FACE ( 'NONE', ( #286 ), #265, .T. ) ;
#245 = CARTESIAN_POINT ( 'NONE',  ( 0.000000000000000000, 0.000000000000000000, 7.199999999999998401 ) ) ;
#246 = EDGE_LOOP ( 'NONE', ( #6, #220, #76, #38 ) ) ;
#247 = CIRCLE ( 'NONE', #84, 6.250000000000000000 ) ;
#248 = EDGE_LOOP ( 'NONE', ( #27, #14, #147, #171 ) ) ;
#249 = CARTESIAN_POINT ( 'NONE',  ( 0.000000000000000000, 0.000000000000000000, 7.199999999999998401 ) ) ;
#250 = COORDINATED_UNIVERSAL_TIME_OFFSET ( 1, 0, .AHEAD. ) ;
#251 = CIRCLE ( 'NONE', #154, 9.000000000000000000 ) ;
#252 = CARTESIAN_POINT ( 'NONE',  ( 0.000000000000000000, 0.000000000000000000, 7.000000000000000000 ) ) ;
#253 = PERSON_AND_ORGANIZATION ( #170, #58 ) ;
#254 = CARTESIAN_POINT ( 'NONE',  ( 6.450000000000000178, 0.000000000000000000, 6.999999999999999112 ) ) ;
#255 = APPROVAL_STATUS ( 'not_yet_approved' ) ;
#256 = DIRECTION ( 'NONE',  ( 1.224646799147353207E-16, 1.000000000000000000, -0.000000000000000000 ) ) ;
#257 = PERSON_AND_ORGANIZATION_ROLE ( 'creator' ) ;
#258 = CARTESIAN_POINT ( 'NONE',  ( 9.000000000000000000, 1.102182119232617714E-15, 7.000000000000000000 ) ) ;
#259 = APPROVAL_ROLE ( '' ) ;
#260 = EDGE_CURVE ( 'NONE', #238, #55, #294, .T. ) ;
#261 = AXIS2_PLACEMENT_3D ( 'NONE', #295, #54, #148 ) ;
#262 = CC_DESIGN_APPROVAL ( #50, ( #133 ) ) ;
#263 = CARTESIAN_POINT ( 'NONE',  ( 0.000000000000000000, 0.000000000000000000, 7.000000000000000000 ) ) ;
#264 = DIRECTION ( 'NONE',  ( 1.000000000000000000, 0.000000000000000000, -0.000000000000000000 ) ) ;
#265 = CYLINDRICAL_SURFACE ( 'NONE', #158, 9.000000000000000000 ) ;
#266 =( NAMED_UNIT ( * ) PLANE_ANGLE_UNIT ( ) SI_UNIT ( $, .RADIAN. ) );
#267 = ORIENTED_EDGE ( 'NONE', *, *, #52, .F. ) ;
#268 = PLANE ( 'NONE',  #261 ) ;
#269 = ORIENTED_EDGE ( 'NONE', *, *, #162, .T. ) ;
#270 = LOCAL_TIME ( 11, 43, 15.00000000000000000, #274 ) ;
#271 = CYLINDRICAL_SURFACE ( 'NONE', #212, 6.250000000000000000 ) ;
#272 = EDGE_CURVE ( 'NONE', #140, #92, #217, .T. ) ;
#273 = LOCAL_TIME ( 11, 43, 15.00000000000000000, #89 ) ;
#274 = COORDINATED_UNIVERSAL_TIME_OFFSET ( 1, 0, .AHEAD. ) ;
#275 = DIRECTION ( 'NONE',  ( 0.000000000000000000, 0.000000000000000000, 1.000000000000000000 ) ) ;
#276 = CC_DESIGN_PERSON_AND_ORGANIZATION_ASSIGNMENT ( #253, #138, ( #133 ) ) ;
#277 = ORIENTED_EDGE ( 'NONE', *, *, #136, .T. ) ;
#278 = CARTESIAN_POINT ( 'NONE',  ( -6.450000000000000178, 7.898971854500428692E-16, 7.199999999999998401 ) ) ;
#279 = APPROVAL_ROLE ( '' ) ;
#280 = DIRECTION ( 'NONE',  ( 0.000000000000000000, 0.000000000000000000, -1.000000000000000000 ) ) ;
#281 = ORIENTED_EDGE ( 'NONE', *, *, #106, .T. ) ;
#282 = DIRECTION ( 'NONE',  ( 0.000000000000000000, 0.000000000000000000, 1.000000000000000000 ) ) ;
#283 = PRODUCT ( 'b8cf', 'b8cf', '', ( #1 ) ) ;
#284 = DIRECTION ( 'NONE',  ( 0.000000000000000000, 0.000000000000000000, 1.000000000000000000 ) ) ;
#285 = DIRECTION ( 'NONE',  ( 1.000000000000000000, 0.000000000000000000, 0.000000000000000000 ) ) ;
#286 = FACE_OUTER_BOUND ( 'NONE', #246, .T. ) ;
#287 = CC_DESIGN_PERSON_AND_ORGANIZATION_ASSIGNMENT ( #108, #257, ( #302 ) ) ;
#288 = DIRECTION ( 'NONE',  ( 0.000000000000000000, 0.000000000000000000, 1.000000000000000000 ) ) ;
#289 = AXIS2_PLACEMENT_3D ( 'NONE', #94, #156, #109 ) ;
#290 = VERTEX_POINT ( 'NONE', #241 ) ;
#291 = ORIENTED_EDGE ( 'NONE', *, *, #13, .F. ) ;
#292 = AXIS2_PLACEMENT_3D ( 'NONE', #235, #275, #301 ) ;
#293 = VERTEX_POINT ( 'NONE', #19 ) ;
#294 = CIRCLE ( 'NONE', #188, 9.000000000000000000 ) ;
#295 = CARTESIAN_POINT ( 'NONE',  ( 0.000000000000000000, 0.000000000000000000, 0.000000000000000000 ) ) ;
#296 = PERSON_AND_ORGANIZATION_ROLE ( 'design_supplier' ) ;
#297 = EDGE_CURVE ( 'NONE', #45, #238, #74, .T. ) ;
#298 = DIRECTION ( 'NONE',  ( 1.000000000000000000, 0.000000000000000000, 0.000000000000000000 ) ) ;
#299 = PERSON_AND_ORGANIZATION ( #170, #58 ) ;
#300 = AXIS2_PLACEMENT_3D ( 'NONE', #263, #304, #39 ) ;
#301 = DIRECTION ( 'NONE',  ( 1.000000000000000000, 0.000000000000000000, 0.000000000000000000 ) ) ;
#302 = PRODUCT_DEFINITION_FORMATION_WITH_SPECIFIED_SOURCE ( 'LIBOVOLNÝ', '', #283, .NOT_KNOWN. ) ;
#303 = ADVANCED_FACE ( 'NONE', ( #168, #21 ), #118, .T. ) ;
#304 = DIRECTION ( 'NONE',  ( -0.000000000000000000, -0.000000000000000000, -1.000000000000000000 ) ) ;
#305 = DATE_AND_TIME ( #110, #44 ) ;
#306 = DIRECTION ( 'NONE',  ( -0.000000000000000000, -0.000000000000000000, -1.000000000000000000 ) ) ;
#307 = DIRECTION ( 'NONE',  ( 1.000000000000000000, 0.000000000000000000, 0.000000000000000000 ) ) ;
ENDSEC;
END-ISO-10303-21;
