ISO-10303-21;
HEADER;
FILE_DESCRIPTION (( 'STEP AP203' ),
    '1' );
FILE_NAME ('e366.STEP',
    '2023-02-12T12:20:24',
    ( '' ),
    ( '' ),
    'SwSTEP 2.0',
    'SolidWorks 2019',
    '' );
FILE_SCHEMA (( 'CONFIG_CONTROL_DESIGN' ));
ENDSEC;

DATA;
#1 = DIRECTION ( 'NONE',  ( 0.000000000000000000, 0.000000000000000000, 1.000000000000000000 ) ) ;
#2 = CC_DESIGN_APPROVAL ( #206, ( #216 ) ) ;
#3 = DIRECTION ( 'NONE',  ( 0.000000000000000000, 0.000000000000000000, 1.000000000000000000 ) ) ;
#4 = CARTESIAN_POINT ( 'NONE',  ( 2.750000000000000000, 3.367778697655221012E-16, 800.0000000000000000 ) ) ;
#5 = CARTESIAN_POINT ( 'NONE',  ( 5.000000000000000000, 6.123233995736766282E-16, 0.000000000000000000 ) ) ;
#6 = EDGE_LOOP ( 'NONE', ( #224, #172, #29, #245 ) ) ;
#7 = DIRECTION ( 'NONE',  ( 1.000000000000000000, 0.000000000000000000, -0.000000000000000000 ) ) ;
#8 = EDGE_LOOP ( 'NONE', ( #92, #151 ) ) ;
#9 = DIRECTION ( 'NONE',  ( 0.000000000000000000, 0.000000000000000000, 1.000000000000000000 ) ) ;
#10 = ORIENTED_EDGE ( 'NONE', *, *, #144, .F. ) ;
#11 = APPLICATION_PROTOCOL_DEFINITION ( 'international standard', 'config_control_design', 1994, #197 ) ;
#12 = ORIENTED_EDGE ( 'NONE', *, *, #117, .F. ) ;
#13 = APPROVAL_ROLE ( '' ) ;
#14 = AXIS2_PLACEMENT_3D ( 'NONE', #89, #134, #127 ) ;
#15 = EDGE_CURVE ( 'NONE', #145, #55, #227, .T. ) ;
#16 = CARTESIAN_POINT ( 'NONE',  ( 0.000000000000000000, 0.000000000000000000, 0.000000000000000000 ) ) ;
#17 = LOCAL_TIME ( 13, 20, 24.00000000000000000, #173 ) ;
#18 = APPROVAL_STATUS ( 'not_yet_approved' ) ;
#19 = DIRECTION ( 'NONE',  ( -1.000000000000000000, 0.000000000000000000, 0.000000000000000000 ) ) ;
#20 = CC_DESIGN_DATE_AND_TIME_ASSIGNMENT ( #41, #73, ( #139 ) ) ;
#21 = CIRCLE ( 'NONE', #255, 5.000000000000000000 ) ;
#22 = PLANE ( 'NONE',  #96 ) ;
#23 = LOCAL_TIME ( 13, 20, 24.00000000000000000, #112 ) ;
#24 = DIRECTION ( 'NONE',  ( 1.000000000000000000, 0.000000000000000000, 0.000000000000000000 ) ) ;
#25 = EDGE_CURVE ( 'NONE', #31, #145, #84, .T. ) ;
#26 = DIRECTION ( 'NONE',  ( -0.000000000000000000, -0.000000000000000000, -1.000000000000000000 ) ) ;
#27 = EDGE_LOOP ( 'NONE', ( #123, #189 ) ) ;
#28 = CARTESIAN_POINT ( 'NONE',  ( 0.000000000000000000, 0.000000000000000000, 0.000000000000000000 ) ) ;
#29 = ORIENTED_EDGE ( 'NONE', *, *, #157, .T. ) ;
#30 = CARTESIAN_POINT ( 'NONE',  ( 0.000000000000000000, 0.000000000000000000, 800.0000000000000000 ) ) ;
#31 = VERTEX_POINT ( 'NONE', #4 ) ;
#32 = VECTOR ( 'NONE', #239, 1000.000000000000000 ) ;
#33 = ORIENTED_EDGE ( 'NONE', *, *, #94, .T. ) ;
#34 = CIRCLE ( 'NONE', #229, 5.000000000000000000 ) ;
#35 = PERSON_AND_ORGANIZATION_ROLE ( 'creator' ) ;
#36 = PERSON_AND_ORGANIZATION ( #179, #95 ) ;
#37 = DIRECTION ( 'NONE',  ( -0.000000000000000000, -0.000000000000000000, -1.000000000000000000 ) ) ;
#38 = CC_DESIGN_PERSON_AND_ORGANIZATION_ASSIGNMENT ( #193, #192, ( #139 ) ) ;
#39 = SHAPE_DEFINITION_REPRESENTATION ( #51, #75 ) ;
#40 = EDGE_CURVE ( 'NONE', #55, #145, #217, .T. ) ;
#41 = DATE_AND_TIME ( #214, #17 ) ;
#42 = APPROVAL_DATE_TIME ( #76, #206 ) ;
#43 =( GEOMETRIC_REPRESENTATION_CONTEXT ( 3 ) GLOBAL_UNCERTAINTY_ASSIGNED_CONTEXT ( ( #116 ) ) GLOBAL_UNIT_ASSIGNED_CONTEXT ( ( #158, #171, #60 ) ) REPRESENTATION_CONTEXT ( 'NONE', 'WORKASPACE' ) );
#44 = VECTOR ( 'NONE', #220, 1000.000000000000000 ) ;
#45 = CIRCLE ( 'NONE', #104, 2.750000000000000000 ) ;
#46 = PRODUCT_DEFINITION ( 'NEZNÁMÝ', '', #216, #97 ) ;
#47 = DIRECTION ( 'NONE',  ( 1.000000000000000000, 0.000000000000000000, -0.000000000000000000 ) ) ;
#48 = DIRECTION ( 'NONE',  ( -1.000000000000000000, 0.000000000000000000, 0.000000000000000000 ) ) ;
#49 = VERTEX_POINT ( 'NONE', #168 ) ;
#50 = LINE ( 'NONE', #167, #155 ) ;
#51 = PRODUCT_DEFINITION_SHAPE ( 'NONE', 'NONE',  #46 ) ;
#52 = ORIENTED_EDGE ( 'NONE', *, *, #86, .F. ) ;
#53 = DIRECTION ( 'NONE',  ( -0.000000000000000000, -0.000000000000000000, -1.000000000000000000 ) ) ;
#54 = CC_DESIGN_APPROVAL ( #232, ( #139 ) ) ;
#55 = VERTEX_POINT ( 'NONE', #240 ) ;
#56 = EDGE_LOOP ( 'NONE', ( #107, #52, #154, #204 ) ) ;
#57 = APPROVAL_ROLE ( '' ) ;
#58 = AXIS2_PLACEMENT_3D ( 'NONE', #28, #106, #7 ) ;
#59 = ADVANCED_FACE ( 'NONE', ( #69 ), #147, .T. ) ;
#60 =( NAMED_UNIT ( * ) SI_UNIT ( $, .STERADIAN. ) SOLID_ANGLE_UNIT ( ) );
#61 = CYLINDRICAL_SURFACE ( 'NONE', #133, 2.750000000000000000 ) ;
#62 = FACE_BOUND ( 'NONE', #109, .T. ) ;
#63 = AXIS2_PLACEMENT_3D ( 'NONE', #83, #26, #103 ) ;
#64 = DIRECTION ( 'NONE',  ( 0.000000000000000000, 0.000000000000000000, 1.000000000000000000 ) ) ;
#65 = VERTEX_POINT ( 'NONE', #225 ) ;
#66 = CARTESIAN_POINT ( 'NONE',  ( 0.000000000000000000, 0.000000000000000000, 3.000000000000000000 ) ) ;
#67 = CC_DESIGN_PERSON_AND_ORGANIZATION_ASSIGNMENT ( #98, #110, ( #216 ) ) ;
#68 = DIRECTION ( 'NONE',  ( 1.000000000000000000, 0.000000000000000000, -0.000000000000000000 ) ) ;
#69 = FACE_OUTER_BOUND ( 'NONE', #8, .T. ) ;
#70 = CARTESIAN_POINT ( 'NONE',  ( -5.000000000000000000, 0.000000000000000000, 3.000000000000000000 ) ) ;
#71 = AXIS2_PLACEMENT_3D ( 'NONE', #16, #114, #191 ) ;
#72 = COORDINATED_UNIVERSAL_TIME_OFFSET ( 1, 0, .AHEAD. ) ;
#73 = DATE_TIME_ROLE ( 'classification_date' ) ;
#74 = ORIENTED_EDGE ( 'NONE', *, *, #40, .F. ) ;
#75 = ADVANCED_BREP_SHAPE_REPRESENTATION ( 'e366', ( #248, #71 ), #43 ) ;
#76 = DATE_AND_TIME ( #231, #246 ) ;
#77 = DATE_AND_TIME ( #244, #23 ) ;
#78 = EDGE_CURVE ( 'NONE', #65, #187, #50, .T. ) ;
#79 = PERSON_AND_ORGANIZATION ( #179, #95 ) ;
#80 = AXIS2_PLACEMENT_3D ( 'NONE', #90, #3, #243 ) ;
#81 = CC_DESIGN_PERSON_AND_ORGANIZATION_ASSIGNMENT ( #79, #35, ( #46 ) ) ;
#82 = AXIS2_PLACEMENT_3D ( 'NONE', #185, #166, #207 ) ;
#83 = CARTESIAN_POINT ( 'NONE',  ( 0.000000000000000000, 0.000000000000000000, 800.0000000000000000 ) ) ;
#84 = LINE ( 'NONE', #213, #100 ) ;
#85 = PLANE ( 'NONE',  #58 ) ;
#86 = EDGE_CURVE ( 'NONE', #163, #65, #21, .T. ) ;
#87 = ORIENTED_EDGE ( 'NONE', *, *, #162, .T. ) ;
#88 = LINE ( 'NONE', #125, #32 ) ;
#89 = CARTESIAN_POINT ( 'NONE',  ( 0.000000000000000000, 0.000000000000000000, 3.000000000000000000 ) ) ;
#90 = CARTESIAN_POINT ( 'NONE',  ( 0.000000000000000000, 0.000000000000000000, 3.000000000000000000 ) ) ;
#91 = PERSON_AND_ORGANIZATION_ROLE ( 'design_owner' ) ;
#92 = ORIENTED_EDGE ( 'NONE', *, *, #117, .T. ) ;
#93 = PERSON_AND_ORGANIZATION ( #179, #95 ) ;
#94 = EDGE_CURVE ( 'NONE', #49, #55, #88, .T. ) ;
#95 = ORGANIZATION ( 'NEURÈENÝ', 'NEURÈENÝ', '' ) ;
#96 = AXIS2_PLACEMENT_3D ( 'NONE', #219, #1, #47 ) ;
#97 = DESIGN_CONTEXT ( 'detailed design', #203, 'design' ) ;
#98 = PERSON_AND_ORGANIZATION ( #179, #95 ) ;
#99 = EDGE_CURVE ( 'NONE', #163, #238, #121, .T. ) ;
#100 = VECTOR ( 'NONE', #37, 1000.000000000000000 ) ;
#101 = CC_DESIGN_APPROVAL ( #180, ( #46 ) ) ;
#102 = DIRECTION ( 'NONE',  ( 1.000000000000000000, 0.000000000000000000, 0.000000000000000000 ) ) ;
#103 = DIRECTION ( 'NONE',  ( -1.000000000000000000, 0.000000000000000000, 0.000000000000000000 ) ) ;
#104 = AXIS2_PLACEMENT_3D ( 'NONE', #146, #9, #102 ) ;
#105 = EDGE_LOOP ( 'NONE', ( #228, #12, #33, #249 ) ) ;
#106 = DIRECTION ( 'NONE',  ( 0.000000000000000000, 0.000000000000000000, 1.000000000000000000 ) ) ;
#107 = ORIENTED_EDGE ( 'NONE', *, *, #78, .F. ) ;
#108 = DIRECTION ( 'NONE',  ( 1.000000000000000000, 0.000000000000000000, 0.000000000000000000 ) ) ;
#109 = EDGE_LOOP ( 'NONE', ( #74, #183 ) ) ;
#110 = PERSON_AND_ORGANIZATION_ROLE ( 'design_supplier' ) ;
#111 = SECURITY_CLASSIFICATION_LEVEL ( 'unclassified' ) ;
#112 = COORDINATED_UNIVERSAL_TIME_OFFSET ( 1, 0, .AHEAD. ) ;
#113 = CALENDAR_DATE ( 2023, 12, 2 ) ;
#114 = DIRECTION ( 'NONE',  ( 0.000000000000000000, 0.000000000000000000, 1.000000000000000000 ) ) ;
#115 = CC_DESIGN_DATE_AND_TIME_ASSIGNMENT ( #156, #195, ( #46 ) ) ;
#116 = UNCERTAINTY_MEASURE_WITH_UNIT (LENGTH_MEASURE( 1.000000000000000082E-05 ), #158, 'distance_accuracy_value', 'NONE');
#117 = EDGE_CURVE ( 'NONE', #49, #31, #175, .T. ) ;
#118 = DIRECTION ( 'NONE',  ( 1.000000000000000000, 0.000000000000000000, 0.000000000000000000 ) ) ;
#119 = CARTESIAN_POINT ( 'NONE',  ( 0.000000000000000000, 0.000000000000000000, 0.000000000000000000 ) ) ;
#120 = PRODUCT ( 'e366', 'e366', '', ( #136 ) ) ;
#121 = LINE ( 'NONE', #161, #44 ) ;
#122 = CARTESIAN_POINT ( 'NONE',  ( 0.000000000000000000, 0.000000000000000000, 0.000000000000000000 ) ) ;
#123 = ORIENTED_EDGE ( 'NONE', *, *, #218, .F. ) ;
#124 = ADVANCED_FACE ( 'NONE', ( #169 ), #186, .T. ) ;
#125 = CARTESIAN_POINT ( 'NONE',  ( -2.750000000000000000, 0.000000000000000000, 800.0000000000000000 ) ) ;
#126 = CIRCLE ( 'NONE', #80, 5.000000000000000000 ) ;
#127 = DIRECTION ( 'NONE',  ( 1.000000000000000000, 0.000000000000000000, 0.000000000000000000 ) ) ;
#128 = DIRECTION ( 'NONE',  ( 0.000000000000000000, 0.000000000000000000, 1.000000000000000000 ) ) ;
#129 = APPROVAL_PERSON_ORGANIZATION ( #230, #206, #57 ) ;
#130 = ORIENTED_EDGE ( 'NONE', *, *, #15, .T. ) ;
#131 = EDGE_LOOP ( 'NONE', ( #10, #170, #130, #210 ) ) ;
#132 = PERSON_AND_ORGANIZATION ( #179, #95 ) ;
#133 = AXIS2_PLACEMENT_3D ( 'NONE', #236, #199, #19 ) ;
#134 = DIRECTION ( 'NONE',  ( 0.000000000000000000, 0.000000000000000000, 1.000000000000000000 ) ) ;
#135 = PERSON_AND_ORGANIZATION_ROLE ( 'creator' ) ;
#136 = MECHANICAL_CONTEXT ( 'NONE', #197, 'mechanical' ) ;
#137 = AXIS2_PLACEMENT_3D ( 'NONE', #149, #242, #68 ) ;
#138 = PERSON_AND_ORGANIZATION ( #179, #95 ) ;
#139 = SECURITY_CLASSIFICATION ( '', '', #111 ) ;
#140 = ADVANCED_FACE ( 'NONE', ( #143 ), #202, .T. ) ;
#141 = CARTESIAN_POINT ( 'NONE',  ( -5.000000000000000000, 0.000000000000000000, 0.000000000000000000 ) ) ;
#142 = FACE_OUTER_BOUND ( 'NONE', #131, .T. ) ;
#143 = FACE_OUTER_BOUND ( 'NONE', #56, .T. ) ;
#144 = EDGE_CURVE ( 'NONE', #31, #49, #45, .T. ) ;
#145 = VERTEX_POINT ( 'NONE', #241 ) ;
#146 = CARTESIAN_POINT ( 'NONE',  ( 0.000000000000000000, 0.000000000000000000, 800.0000000000000000 ) ) ;
#147 = PLANE ( 'NONE',  #137 ) ;
#148 = DIRECTION ( 'NONE',  ( 0.000000000000000000, 0.000000000000000000, 1.000000000000000000 ) ) ;
#149 = CARTESIAN_POINT ( 'NONE',  ( 0.000000000000000000, 0.000000000000000000, 800.0000000000000000 ) ) ;
#150 = LOCAL_TIME ( 13, 20, 24.00000000000000000, #72 ) ;
#151 = ORIENTED_EDGE ( 'NONE', *, *, #144, .T. ) ;
#152 = APPROVAL_DATE_TIME ( #247, #180 ) ;
#153 = APPROVAL_STATUS ( 'not_yet_approved' ) ;
#154 = ORIENTED_EDGE ( 'NONE', *, *, #99, .T. ) ;
#155 = VECTOR ( 'NONE', #209, 1000.000000000000000 ) ;
#156 = DATE_AND_TIME ( #113, #150 ) ;
#157 = EDGE_CURVE ( 'NONE', #187, #238, #234, .T. ) ;
#158 =( LENGTH_UNIT ( ) NAMED_UNIT ( * ) SI_UNIT ( .MILLI., .METRE. ) );
#159 = CC_DESIGN_PERSON_AND_ORGANIZATION_ASSIGNMENT ( #93, #135, ( #216 ) ) ;
#160 = DIRECTION ( 'NONE',  ( 0.000000000000000000, 0.000000000000000000, 1.000000000000000000 ) ) ;
#161 = CARTESIAN_POINT ( 'NONE',  ( -5.000000000000000000, 0.000000000000000000, 3.000000000000000000 ) ) ;
#162 = EDGE_CURVE ( 'NONE', #65, #163, #126, .T. ) ;
#163 = VERTEX_POINT ( 'NONE', #70 ) ;
#164 = FACE_OUTER_BOUND ( 'NONE', #27, .T. ) ;
#165 = ADVANCED_FACE ( 'NONE', ( #201 ), #182, .T. ) ;
#166 = DIRECTION ( 'NONE',  ( 0.000000000000000000, 0.000000000000000000, 1.000000000000000000 ) ) ;
#167 = CARTESIAN_POINT ( 'NONE',  ( 5.000000000000000000, 6.123233995736766282E-16, 3.000000000000000000 ) ) ;
#168 = CARTESIAN_POINT ( 'NONE',  ( -2.750000000000000000, 0.000000000000000000, 800.0000000000000000 ) ) ;
#169 = FACE_OUTER_BOUND ( 'NONE', #6, .T. ) ;
#170 = ORIENTED_EDGE ( 'NONE', *, *, #25, .T. ) ;
#171 =( NAMED_UNIT ( * ) PLANE_ANGLE_UNIT ( ) SI_UNIT ( $, .RADIAN. ) );
#172 = ORIENTED_EDGE ( 'NONE', *, *, #78, .T. ) ;
#173 = COORDINATED_UNIVERSAL_TIME_OFFSET ( 1, 0, .AHEAD. ) ;
#174 = PRODUCT_RELATED_PRODUCT_CATEGORY ( 'detail', '', ( #120 ) ) ;
#175 = CIRCLE ( 'NONE', #198, 2.750000000000000000 ) ;
#176 = AXIS2_PLACEMENT_3D ( 'NONE', #66, #205, #188 ) ;
#177 = APPROVAL_STATUS ( 'not_yet_approved' ) ;
#178 = APPROVAL_PERSON_ORGANIZATION ( #36, #232, #250 ) ;
#179 = PERSON ( 'NEURÈENÝ', 'NEURÈENÝ', 'NEURÈENÝ', ('NEURÈENÝ'), ('NEURÈENÝ'), ('NEURÈENÝ') ) ;
#180 = APPROVAL ( #18, 'NEURÈENÝ' ) ;
#181 = CLOSED_SHELL ( 'NONE', ( #233, #124, #140, #253, #194, #165, #59 ) ) ;
#182 = CYLINDRICAL_SURFACE ( 'NONE', #63, 2.750000000000000000 ) ;
#183 = ORIENTED_EDGE ( 'NONE', *, *, #15, .F. ) ;
#184 = DIRECTION ( 'NONE',  ( 1.000000000000000000, 0.000000000000000000, 0.000000000000000000 ) ) ;
#185 = CARTESIAN_POINT ( 'NONE',  ( 0.000000000000000000, 0.000000000000000000, 3.000000000000000000 ) ) ;
#186 = CYLINDRICAL_SURFACE ( 'NONE', #176, 5.000000000000000000 ) ;
#187 = VERTEX_POINT ( 'NONE', #5 ) ;
#188 = DIRECTION ( 'NONE',  ( -1.000000000000000000, 0.000000000000000000, 0.000000000000000000 ) ) ;
#189 = ORIENTED_EDGE ( 'NONE', *, *, #157, .F. ) ;
#190 = AXIS2_PLACEMENT_3D ( 'NONE', #223, #53, #48 ) ;
#191 = DIRECTION ( 'NONE',  ( 1.000000000000000000, 0.000000000000000000, 0.000000000000000000 ) ) ;
#192 = PERSON_AND_ORGANIZATION_ROLE ( 'classification_officer' ) ;
#193 = PERSON_AND_ORGANIZATION ( #179, #95 ) ;
#194 = ADVANCED_FACE ( 'NONE', ( #164 ), #85, .F. ) ;
#195 = DATE_TIME_ROLE ( 'creation_date' ) ;
#196 = CC_DESIGN_SECURITY_CLASSIFICATION ( #139, ( #216 ) ) ;
#197 = APPLICATION_CONTEXT ( 'configuration controlled 3d designs of mechanical parts and assemblies' ) ;
#198 = AXIS2_PLACEMENT_3D ( 'NONE', #30, #148, #108 ) ;
#199 = DIRECTION ( 'NONE',  ( -0.000000000000000000, -0.000000000000000000, -1.000000000000000000 ) ) ;
#200 = FACE_OUTER_BOUND ( 'NONE', #211, .T. ) ;
#201 = FACE_OUTER_BOUND ( 'NONE', #105, .T. ) ;
#202 = CYLINDRICAL_SURFACE ( 'NONE', #190, 5.000000000000000000 ) ;
#203 = APPLICATION_CONTEXT ( 'configuration controlled 3d designs of mechanical parts and assemblies' ) ;
#204 = ORIENTED_EDGE ( 'NONE', *, *, #218, .T. ) ;
#205 = DIRECTION ( 'NONE',  ( -0.000000000000000000, -0.000000000000000000, -1.000000000000000000 ) ) ;
#206 = APPROVAL ( #177, 'NEURÈENÝ' ) ;
#207 = DIRECTION ( 'NONE',  ( 1.000000000000000000, 0.000000000000000000, 0.000000000000000000 ) ) ;
#208 = APPROVAL_PERSON_ORGANIZATION ( #132, #180, #13 ) ;
#209 = DIRECTION ( 'NONE',  ( -0.000000000000000000, -0.000000000000000000, -1.000000000000000000 ) ) ;
#210 = ORIENTED_EDGE ( 'NONE', *, *, #94, .F. ) ;
#211 = EDGE_LOOP ( 'NONE', ( #221, #87 ) ) ;
#212 = COORDINATED_UNIVERSAL_TIME_OFFSET ( 1, 0, .AHEAD. ) ;
#213 = CARTESIAN_POINT ( 'NONE',  ( 2.750000000000000000, 3.367778697655221012E-16, 800.0000000000000000 ) ) ;
#214 = CALENDAR_DATE ( 2023, 12, 2 ) ;
#215 = APPLICATION_PROTOCOL_DEFINITION ( 'international standard', 'config_control_design', 1994, #203 ) ;
#216 = PRODUCT_DEFINITION_FORMATION_WITH_SPECIFIED_SOURCE ( 'LIBOVOLNÝ', '', #120, .NOT_KNOWN. ) ;
#217 = CIRCLE ( 'NONE', #82, 2.750000000000000000 ) ;
#218 = EDGE_CURVE ( 'NONE', #238, #187, #34, .T. ) ;
#219 = CARTESIAN_POINT ( 'NONE',  ( 0.000000000000000000, 0.000000000000000000, 3.000000000000000000 ) ) ;
#220 = DIRECTION ( 'NONE',  ( -0.000000000000000000, -0.000000000000000000, -1.000000000000000000 ) ) ;
#221 = ORIENTED_EDGE ( 'NONE', *, *, #86, .T. ) ;
#222 = CC_DESIGN_PERSON_AND_ORGANIZATION_ASSIGNMENT ( #138, #91, ( #120 ) ) ;
#223 = CARTESIAN_POINT ( 'NONE',  ( 0.000000000000000000, 0.000000000000000000, 3.000000000000000000 ) ) ;
#224 = ORIENTED_EDGE ( 'NONE', *, *, #162, .F. ) ;
#225 = CARTESIAN_POINT ( 'NONE',  ( 5.000000000000000000, 6.123233995736766282E-16, 3.000000000000000000 ) ) ;
#226 = APPROVAL_DATE_TIME ( #77, #232 ) ;
#227 = CIRCLE ( 'NONE', #14, 2.750000000000000000 ) ;
#228 = ORIENTED_EDGE ( 'NONE', *, *, #25, .F. ) ;
#229 = AXIS2_PLACEMENT_3D ( 'NONE', #119, #160, #118 ) ;
#230 = PERSON_AND_ORGANIZATION ( #179, #95 ) ;
#231 = CALENDAR_DATE ( 2023, 12, 2 ) ;
#232 = APPROVAL ( #153, 'NEURÈENÝ' ) ;
#233 = ADVANCED_FACE ( 'NONE', ( #142 ), #61, .T. ) ;
#234 = CIRCLE ( 'NONE', #251, 5.000000000000000000 ) ;
#235 = LOCAL_TIME ( 13, 20, 24.00000000000000000, #212 ) ;
#236 = CARTESIAN_POINT ( 'NONE',  ( 0.000000000000000000, 0.000000000000000000, 800.0000000000000000 ) ) ;
#237 = CARTESIAN_POINT ( 'NONE',  ( 0.000000000000000000, 0.000000000000000000, 3.000000000000000000 ) ) ;
#238 = VERTEX_POINT ( 'NONE', #141 ) ;
#239 = DIRECTION ( 'NONE',  ( -0.000000000000000000, -0.000000000000000000, -1.000000000000000000 ) ) ;
#240 = CARTESIAN_POINT ( 'NONE',  ( -2.750000000000000000, 0.000000000000000000, 3.000000000000000000 ) ) ;
#241 = CARTESIAN_POINT ( 'NONE',  ( 2.750000000000000000, 3.367778697655221012E-16, 3.000000000000000000 ) ) ;
#242 = DIRECTION ( 'NONE',  ( 0.000000000000000000, 0.000000000000000000, 1.000000000000000000 ) ) ;
#243 = DIRECTION ( 'NONE',  ( 1.000000000000000000, 0.000000000000000000, 0.000000000000000000 ) ) ;
#244 = CALENDAR_DATE ( 2023, 12, 2 ) ;
#245 = ORIENTED_EDGE ( 'NONE', *, *, #99, .F. ) ;
#246 = LOCAL_TIME ( 13, 20, 24.00000000000000000, #254 ) ;
#247 = DATE_AND_TIME ( #252, #235 ) ;
#248 = MANIFOLD_SOLID_BREP ( 'Pøidat vysunutím3', #181 ) ;
#249 = ORIENTED_EDGE ( 'NONE', *, *, #40, .T. ) ;
#250 = APPROVAL_ROLE ( '' ) ;
#251 = AXIS2_PLACEMENT_3D ( 'NONE', #122, #128, #24 ) ;
#252 = CALENDAR_DATE ( 2023, 12, 2 ) ;
#253 = ADVANCED_FACE ( 'NONE', ( #62, #200 ), #22, .T. ) ;
#254 = COORDINATED_UNIVERSAL_TIME_OFFSET ( 1, 0, .AHEAD. ) ;
#255 = AXIS2_PLACEMENT_3D ( 'NONE', #237, #64, #184 ) ;
ENDSEC;
END-ISO-10303-21;
