ISO-10303-21;
HEADER;
FILE_DESCRIPTION (( 'STEP AP203' ),
    '1' );
FILE_NAME ('d89e.STEP',
    '2022-07-07T09:56:58',
    ( '' ),
    ( '' ),
    'SwSTEP 2.0',
    'SolidWorks 2019',
    '' );
FILE_SCHEMA (( 'CONFIG_CONTROL_DESIGN' ));
ENDSEC;

DATA;
#1 = APPROVAL_DATE_TIME ( #183, #66 ) ;
#2 = EDGE_CURVE ( 'NONE', #167, #267, #196, .T. ) ;
#3 = AXIS2_PLACEMENT_3D ( 'NONE', #159, #254, #22 ) ;
#4 = COORDINATED_UNIVERSAL_TIME_OFFSET ( 1, 0, .AHEAD. ) ;
#5 = APPLICATION_PROTOCOL_DEFINITION ( 'international standard', 'config_control_design', 1994, #184 ) ;
#6 = CARTESIAN_POINT ( 'NONE',  ( 4.700000000000000178, 0.000000000000000000, 5.000000000000005329 ) ) ;
#7 = AXIS2_PLACEMENT_3D ( 'NONE', #169, #189, #264 ) ;
#8 = ORIENTED_EDGE ( 'NONE', *, *, #242, .T. ) ;
#9 = ORIENTED_EDGE ( 'NONE', *, *, #242, .F. ) ;
#10 = ORIENTED_EDGE ( 'NONE', *, *, #261, .T. ) ;
#11 = VERTEX_POINT ( 'NONE', #127 ) ;
#12 = DIRECTION ( 'NONE',  ( 1.000000000000000000, 0.000000000000000000, -0.000000000000000000 ) ) ;
#13 = PRODUCT ( 'd89e', 'd89e', '', ( #255 ) ) ;
#14 = CIRCLE ( 'NONE', #141, 4.700000000000000178 ) ;
#15 = VERTEX_POINT ( 'NONE', #110 ) ;
#16 = CC_DESIGN_APPROVAL ( #285, ( #39 ) ) ;
#17 = CARTESIAN_POINT ( 'NONE',  ( 0.000000000000000000, 0.000000000000000000, 205.0000000000000284 ) ) ;
#18 = LINE ( 'NONE', #73, #274 ) ;
#19 = CC_DESIGN_PERSON_AND_ORGANIZATION_ASSIGNMENT ( #140, #307, ( #90 ) ) ;
#20 = ADVANCED_FACE ( 'NONE', ( #40 ), #191, .T. ) ;
#21 = CYLINDRICAL_SURFACE ( 'NONE', #289, 4.500000000000000888 ) ;
#22 = DIRECTION ( 'NONE',  ( -1.000000000000000000, 1.224646799147353454E-16, 0.000000000000000000 ) ) ;
#23 = CARTESIAN_POINT ( 'NONE',  ( 0.000000000000000000, 0.000000000000000000, 205.0000000000000284 ) ) ;
#24 = CARTESIAN_POINT ( 'NONE',  ( -4.500000000000000888, 0.000000000000000000, 205.0000000000000284 ) ) ;
#25 =( NAMED_UNIT ( * ) SI_UNIT ( $, .STERADIAN. ) SOLID_ANGLE_UNIT ( ) );
#26 = CIRCLE ( 'NONE', #54, 0.1999999999999996503 ) ;
#27 = DATE_AND_TIME ( #231, #197 ) ;
#28 = ADVANCED_FACE ( 'NONE', ( #209 ), #298, .T. ) ;
#29 = ADVANCED_FACE ( 'NONE', ( #217 ), #262, .F. ) ;
#30 = DIRECTION ( 'NONE',  ( 1.000000000000000000, 0.000000000000000000, 0.000000000000000000 ) ) ;
#31 = CALENDAR_DATE ( 2022, 7, 7 ) ;
#32 = APPROVAL_PERSON_ORGANIZATION ( #205, #285, #234 ) ;
#33 = DIRECTION ( 'NONE',  ( 0.000000000000000000, 0.000000000000000000, 1.000000000000000000 ) ) ;
#34 = VERTEX_POINT ( 'NONE', #6 ) ;
#35 = EDGE_LOOP ( 'NONE', ( #126, #287, #129, #148 ) ) ;
#36 = CARTESIAN_POINT ( 'NONE',  ( 0.000000000000000000, 0.000000000000000000, 0.000000000000000000 ) ) ;
#37 = AXIS2_PLACEMENT_3D ( 'NONE', #23, #177, #91 ) ;
#38 = ORIENTED_EDGE ( 'NONE', *, *, #276, .T. ) ;
#39 = PRODUCT_DEFINITION ( 'NEZNÁMÝ', '', #90, #239 ) ;
#40 = FACE_OUTER_BOUND ( 'NONE', #35, .T. ) ;
#41 = ORIENTED_EDGE ( 'NONE', *, *, #276, .F. ) ;
#42 = ORIENTED_EDGE ( 'NONE', *, *, #300, .T. ) ;
#43 = CC_DESIGN_SECURITY_CLASSIFICATION ( #130, ( #90 ) ) ;
#44 = LINE ( 'NONE', #158, #59 ) ;
#45 = CYLINDRICAL_SURFACE ( 'NONE', #282, 4.500000000000000888 ) ;
#46 = DIRECTION ( 'NONE',  ( 0.000000000000000000, 0.000000000000000000, 1.000000000000000000 ) ) ;
#47 = AXIS2_PLACEMENT_3D ( 'NONE', #136, #119, #304 ) ;
#48 = DIRECTION ( 'NONE',  ( 1.000000000000000000, 0.000000000000000000, 0.000000000000000000 ) ) ;
#49 = CARTESIAN_POINT ( 'NONE',  ( -7.000000000000000000, 0.000000000000000000, 0.000000000000000000 ) ) ;
#50 = PERSON_AND_ORGANIZATION ( #238, #180 ) ;
#51 = PERSON_AND_ORGANIZATION_ROLE ( 'creator' ) ;
#52 = AXIS2_PLACEMENT_3D ( 'NONE', #223, #115, #181 ) ;
#53 = EDGE_CURVE ( 'NONE', #34, #269, #14, .T. ) ;
#54 = AXIS2_PLACEMENT_3D ( 'NONE', #114, #277, #176 ) ;
#55 = EDGE_CURVE ( 'NONE', #65, #105, #149, .T. ) ;
#56 = APPROVAL_ROLE ( '' ) ;
#57 = CARTESIAN_POINT ( 'NONE',  ( 0.000000000000000000, 0.000000000000000000, 0.000000000000000000 ) ) ;
#58 = AXIS2_PLACEMENT_3D ( 'NONE', #132, #246, #113 ) ;
#59 = VECTOR ( 'NONE', #299, 1000.000000000000000 ) ;
#60 = DIRECTION ( 'NONE',  ( 1.000000000000000000, 0.000000000000000000, 0.000000000000000000 ) ) ;
#61 = DATE_AND_TIME ( #216, #79 ) ;
#62 = CARTESIAN_POINT ( 'NONE',  ( -7.000000000000000000, 0.000000000000000000, 5.000000000000000000 ) ) ;
#63 = ADVANCED_FACE ( 'NONE', ( #187 ), #201, .F. ) ;
#64 = ORIENTED_EDGE ( 'NONE', *, *, #147, .F. ) ;
#65 = VERTEX_POINT ( 'NONE', #62 ) ;
#66 = APPROVAL ( #121, 'NEURÈENÝ' ) ;
#67 = DIRECTION ( 'NONE',  ( 0.000000000000000000, 0.000000000000000000, 1.000000000000000000 ) ) ;
#68 = ADVANCED_BREP_SHAPE_REPRESENTATION ( 'd89e', ( #233, #165 ), #296 ) ;
#69 = AXIS2_PLACEMENT_3D ( 'NONE', #275, #46, #72 ) ;
#70 = LINE ( 'NONE', #198, #85 ) ;
#71 = DIRECTION ( 'NONE',  ( -0.000000000000000000, -0.000000000000000000, -1.000000000000000000 ) ) ;
#72 = DIRECTION ( 'NONE',  ( 1.000000000000000000, 0.000000000000000000, 0.000000000000000000 ) ) ;
#73 = CARTESIAN_POINT ( 'NONE',  ( 7.000000000000000000, 8.572527594031473190E-16, 5.000000000000000000 ) ) ;
#74 = CC_DESIGN_PERSON_AND_ORGANIZATION_ASSIGNMENT ( #50, #51, ( #90 ) ) ;
#75 = PERSON_AND_ORGANIZATION_ROLE ( 'classification_officer' ) ;
#76 = ADVANCED_FACE ( 'NONE', ( #151 ), #45, .T. ) ;
#77 =( LENGTH_UNIT ( ) NAMED_UNIT ( * ) SI_UNIT ( .MILLI., .METRE. ) );
#78 = VECTOR ( 'NONE', #240, 1000.000000000000000 ) ;
#79 = LOCAL_TIME ( 11, 56, 58.00000000000000000, #214 ) ;
#80 = ORIENTED_EDGE ( 'NONE', *, *, #53, .T. ) ;
#81 = EDGE_LOOP ( 'NONE', ( #80, #10 ) ) ;
#82 = EDGE_CURVE ( 'NONE', #153, #269, #265, .T. ) ;
#83 = ORIENTED_EDGE ( 'NONE', *, *, #82, .T. ) ;
#84 = EDGE_LOOP ( 'NONE', ( #154, #83, #270, #9 ) ) ;
#85 = VECTOR ( 'NONE', #178, 1000.000000000000000 ) ;
#86 = APPROVAL_STATUS ( 'not_yet_approved' ) ;
#87 = CARTESIAN_POINT ( 'NONE',  ( 0.000000000000000000, 0.000000000000000000, 5.000000000000000000 ) ) ;
#88 = ORIENTED_EDGE ( 'NONE', *, *, #229, .T. ) ;
#89 = CARTESIAN_POINT ( 'NONE',  ( -4.500000000000000888, 0.000000000000000000, 5.200000000000009948 ) ) ;
#90 = PRODUCT_DEFINITION_FORMATION_WITH_SPECIFIED_SOURCE ( 'LIBOVOLNÝ', '', #13, .NOT_KNOWN. ) ;
#91 = DIRECTION ( 'NONE',  ( 1.000000000000000000, 0.000000000000000000, -0.000000000000000000 ) ) ;
#92 = DIRECTION ( 'NONE',  ( 1.000000000000000000, 0.000000000000000000, 0.000000000000000000 ) ) ;
#93 = CARTESIAN_POINT ( 'NONE',  ( -4.700000000000000178, 5.755839955992559655E-16, 5.000000000000005329 ) ) ;
#94 = AXIS2_PLACEMENT_3D ( 'NONE', #36, #297, #12 ) ;
#95 = CIRCLE ( 'NONE', #142, 4.500000000000000888 ) ;
#96 = FACE_OUTER_BOUND ( 'NONE', #133, .T. ) ;
#97 = DIRECTION ( 'NONE',  ( 1.000000000000000000, 0.000000000000000000, 0.000000000000000000 ) ) ;
#98 = AXIS2_PLACEMENT_3D ( 'NONE', #17, #237, #193 ) ;
#99 = PERSON_AND_ORGANIZATION_ROLE ( 'creator' ) ;
#100 = CALENDAR_DATE ( 2022, 7, 7 ) ;
#101 = APPROVAL_STATUS ( 'not_yet_approved' ) ;
#102 = DIRECTION ( 'NONE',  ( -0.000000000000000000, -0.000000000000000000, -1.000000000000000000 ) ) ;
#103 = AXIS2_PLACEMENT_3D ( 'NONE', #160, #251, #48 ) ;
#104 = EDGE_CURVE ( 'NONE', #267, #167, #295, .T. ) ;
#105 = VERTEX_POINT ( 'NONE', #49 ) ;
#106 = CC_DESIGN_PERSON_AND_ORGANIZATION_ASSIGNMENT ( #145, #163, ( #13 ) ) ;
#107 = ORIENTED_EDGE ( 'NONE', *, *, #147, .T. ) ;
#108 = EDGE_LOOP ( 'NONE', ( #245, #131, #107, #88 ) ) ;
#109 = APPROVAL_ROLE ( '' ) ;
#110 = CARTESIAN_POINT ( 'NONE',  ( 7.000000000000000000, 8.572527594031473190E-16, 5.000000000000000000 ) ) ;
#111 = ORIENTED_EDGE ( 'NONE', *, *, #173, .T. ) ;
#112 = ORIENTED_EDGE ( 'NONE', *, *, #2, .T. ) ;
#113 = DIRECTION ( 'NONE',  ( -1.000000000000000000, 0.000000000000000000, 0.000000000000000000 ) ) ;
#114 = CARTESIAN_POINT ( 'NONE',  ( 4.700000000000000178, 0.000000000000000000, 5.200000000000009948 ) ) ;
#115 = DIRECTION ( 'NONE',  ( 0.000000000000000000, 0.000000000000000000, 1.000000000000000000 ) ) ;
#116 = EDGE_CURVE ( 'NONE', #65, #15, #179, .T. ) ;
#117 = DIRECTION ( 'NONE',  ( 0.000000000000000000, 0.000000000000000000, 1.000000000000000000 ) ) ;
#118 = DIRECTION ( 'NONE',  ( 1.000000000000000000, 0.000000000000000000, 0.000000000000000000 ) ) ;
#119 = DIRECTION ( 'NONE',  ( 0.000000000000000000, 0.000000000000000000, 1.000000000000000000 ) ) ;
#120 = EDGE_CURVE ( 'NONE', #267, #11, #44, .T. ) ;
#121 = APPROVAL_STATUS ( 'not_yet_approved' ) ;
#122 = COORDINATED_UNIVERSAL_TIME_OFFSET ( 1, 0, .AHEAD. ) ;
#123 = DATE_AND_TIME ( #31, #210 ) ;
#124 = AXIS2_PLACEMENT_3D ( 'NONE', #247, #135, #92 ) ;
#125 = DIRECTION ( 'NONE',  ( 0.000000000000000000, 0.000000000000000000, 1.000000000000000000 ) ) ;
#126 = ORIENTED_EDGE ( 'NONE', *, *, #173, .F. ) ;
#127 = CARTESIAN_POINT ( 'NONE',  ( 4.500000000000000888, 5.510910596163089556E-16, 5.200000000000009948 ) ) ;
#128 = CC_DESIGN_DATE_AND_TIME_ASSIGNMENT ( #123, #207, ( #39 ) ) ;
#129 = ORIENTED_EDGE ( 'NONE', *, *, #250, .T. ) ;
#130 = SECURITY_CLASSIFICATION ( '', '', #280 ) ;
#131 = ORIENTED_EDGE ( 'NONE', *, *, #2, .F. ) ;
#132 = CARTESIAN_POINT ( 'NONE',  ( 0.000000000000000000, 0.000000000000000000, 5.000000000000000000 ) ) ;
#133 = EDGE_LOOP ( 'NONE', ( #290, #170, #42, #64 ) ) ;
#134 = EDGE_LOOP ( 'NONE', ( #41, #220 ) ) ;
#135 = DIRECTION ( 'NONE',  ( 0.000000000000000000, 0.000000000000000000, 1.000000000000000000 ) ) ;
#136 = CARTESIAN_POINT ( 'NONE',  ( 0.000000000000000000, 0.000000000000000000, 5.000000000000000000 ) ) ;
#137 = PRODUCT_RELATED_PRODUCT_CATEGORY ( 'detail', '', ( #13 ) ) ;
#138 = FACE_OUTER_BOUND ( 'NONE', #243, .T. ) ;
#139 = DIRECTION ( 'NONE',  ( 1.000000000000000000, 0.000000000000000000, 0.000000000000000000 ) ) ;
#140 = PERSON_AND_ORGANIZATION ( #238, #180 ) ;
#141 = AXIS2_PLACEMENT_3D ( 'NONE', #87, #102, #60 ) ;
#142 = AXIS2_PLACEMENT_3D ( 'NONE', #236, #227, #97 ) ;
#143 = COORDINATED_UNIVERSAL_TIME_OFFSET ( 1, 0, .AHEAD. ) ;
#144 = PERSON_AND_ORGANIZATION ( #238, #180 ) ;
#145 = PERSON_AND_ORGANIZATION ( #238, #180 ) ;
#146 = EDGE_LOOP ( 'NONE', ( #211, #111 ) ) ;
#147 = EDGE_CURVE ( 'NONE', #167, #153, #70, .T. ) ;
#148 = ORIENTED_EDGE ( 'NONE', *, *, #55, .F. ) ;
#149 = LINE ( 'NONE', #171, #78 ) ;
#150 = SHAPE_DEFINITION_REPRESENTATION ( #271, #68 ) ;
#151 = FACE_OUTER_BOUND ( 'NONE', #108, .T. ) ;
#152 = ORIENTED_EDGE ( 'NONE', *, *, #157, .F. ) ;
#153 = VERTEX_POINT ( 'NONE', #89 ) ;
#154 = ORIENTED_EDGE ( 'NONE', *, *, #229, .F. ) ;
#155 = DIRECTION ( 'NONE',  ( -0.000000000000000000, -0.000000000000000000, -1.000000000000000000 ) ) ;
#156 = AXIS2_PLACEMENT_3D ( 'NONE', #195, #117, #139 ) ;
#157 = EDGE_CURVE ( 'NONE', #15, #166, #18, .T. ) ;
#158 = CARTESIAN_POINT ( 'NONE',  ( 4.500000000000000888, 5.510910596163089556E-16, 205.0000000000000284 ) ) ;
#159 = CARTESIAN_POINT ( 'NONE',  ( -4.700000000000000178, 5.755839955992559655E-16, 5.200000000000009948 ) ) ;
#160 = CARTESIAN_POINT ( 'NONE',  ( 0.000000000000000000, 0.000000000000000000, 5.000000000000000000 ) ) ;
#161 = FACE_OUTER_BOUND ( 'NONE', #146, .T. ) ;
#162 = APPROVAL_DATE_TIME ( #232, #285 ) ;
#163 = PERSON_AND_ORGANIZATION_ROLE ( 'design_owner' ) ;
#164 = APPROVAL_PERSON_ORGANIZATION ( #268, #182, #109 ) ;
#165 = AXIS2_PLACEMENT_3D ( 'NONE', #57, #125, #281 ) ;
#166 = VERTEX_POINT ( 'NONE', #194 ) ;
#167 = VERTEX_POINT ( 'NONE', #24 ) ;
#168 = APPROVAL_DATE_TIME ( #61, #182 ) ;
#169 = CARTESIAN_POINT ( 'NONE',  ( 0.000000000000000000, 0.000000000000000000, 5.200000000000009948 ) ) ;
#170 = ORIENTED_EDGE ( 'NONE', *, *, #120, .T. ) ;
#171 = CARTESIAN_POINT ( 'NONE',  ( -7.000000000000000000, 0.000000000000000000, 5.000000000000000000 ) ) ;
#172 = DIRECTION ( 'NONE',  ( -0.000000000000000000, -0.000000000000000000, -1.000000000000000000 ) ) ;
#173 = EDGE_CURVE ( 'NONE', #15, #65, #283, .T. ) ;
#174 = CARTESIAN_POINT ( 'NONE',  ( 0.000000000000000000, 0.000000000000000000, 205.0000000000000284 ) ) ;
#175 = LOCAL_TIME ( 11, 56, 58.00000000000000000, #258 ) ;
#176 = DIRECTION ( 'NONE',  ( 0.000000000000000000, 0.000000000000000000, -1.000000000000000000 ) ) ;
#177 = DIRECTION ( 'NONE',  ( 0.000000000000000000, 0.000000000000000000, 1.000000000000000000 ) ) ;
#178 = DIRECTION ( 'NONE',  ( -0.000000000000000000, -0.000000000000000000, -1.000000000000000000 ) ) ;
#179 = CIRCLE ( 'NONE', #52, 7.000000000000000000 ) ;
#180 = ORGANIZATION ( 'NEURÈENÝ', 'NEURÈENÝ', '' ) ;
#181 = DIRECTION ( 'NONE',  ( 1.000000000000000000, 0.000000000000000000, 0.000000000000000000 ) ) ;
#182 = APPROVAL ( #86, 'NEURÈENÝ' ) ;
#183 = DATE_AND_TIME ( #100, #235 ) ;
#184 = APPLICATION_CONTEXT ( 'configuration controlled 3d designs of mechanical parts and assemblies' ) ;
#185 = TOROIDAL_SURFACE ( 'NONE', #156, 4.700000000000000178, 0.2000000000000000111 ) ;
#186 = EDGE_LOOP ( 'NONE', ( #213, #292, #8, #218 ) ) ;
#187 = FACE_OUTER_BOUND ( 'NONE', #84, .T. ) ;
#188 = ADVANCED_FACE ( 'NONE', ( #278 ), #185, .F. ) ;
#189 = DIRECTION ( 'NONE',  ( 0.000000000000000000, 0.000000000000000000, 1.000000000000000000 ) ) ;
#190 = AXIS2_PLACEMENT_3D ( 'NONE', #174, #303, #118 ) ;
#191 = CYLINDRICAL_SURFACE ( 'NONE', #58, 7.000000000000000000 ) ;
#192 = CC_DESIGN_APPROVAL ( #182, ( #130 ) ) ;
#193 = DIRECTION ( 'NONE',  ( 1.000000000000000000, 0.000000000000000000, 0.000000000000000000 ) ) ;
#194 = CARTESIAN_POINT ( 'NONE',  ( 7.000000000000000000, 8.572527594031473190E-16, 0.000000000000000000 ) ) ;
#195 = CARTESIAN_POINT ( 'NONE',  ( 0.000000000000000000, 0.000000000000000000, 5.200000000000009948 ) ) ;
#196 = CIRCLE ( 'NONE', #98, 4.500000000000000888 ) ;
#197 = LOCAL_TIME ( 11, 56, 58.00000000000000000, #143 ) ;
#198 = CARTESIAN_POINT ( 'NONE',  ( -4.500000000000000888, 0.000000000000000000, 205.0000000000000284 ) ) ;
#199 = DIRECTION ( 'NONE',  ( -0.000000000000000000, -0.000000000000000000, -1.000000000000000000 ) ) ;
#200 = FACE_BOUND ( 'NONE', #81, .T. ) ;
#201 = TOROIDAL_SURFACE ( 'NONE', #7, 4.700000000000000178, 0.2000000000000000111 ) ;
#202 = PERSON_AND_ORGANIZATION ( #238, #180 ) ;
#203 = ADVANCED_FACE ( 'NONE', ( #200, #161 ), #305, .T. ) ;
#204 = DATE_TIME_ROLE ( 'classification_date' ) ;
#205 = PERSON_AND_ORGANIZATION ( #238, #180 ) ;
#206 = APPROVAL_PERSON_ORGANIZATION ( #284, #66, #56 ) ;
#207 = DATE_TIME_ROLE ( 'creation_date' ) ;
#208 =( NAMED_UNIT ( * ) PLANE_ANGLE_UNIT ( ) SI_UNIT ( $, .RADIAN. ) );
#209 = FACE_OUTER_BOUND ( 'NONE', #293, .T. ) ;
#210 = LOCAL_TIME ( 11, 56, 58.00000000000000000, #122 ) ;
#211 = ORIENTED_EDGE ( 'NONE', *, *, #116, .T. ) ;
#212 = ADVANCED_FACE ( 'NONE', ( #96 ), #21, .T. ) ;
#213 = ORIENTED_EDGE ( 'NONE', *, *, #82, .F. ) ;
#214 = COORDINATED_UNIVERSAL_TIME_OFFSET ( 1, 0, .AHEAD. ) ;
#215 = CARTESIAN_POINT ( 'NONE',  ( 0.000000000000000000, 0.000000000000000000, 5.000000000000000000 ) ) ;
#216 = CALENDAR_DATE ( 2022, 7, 7 ) ;
#217 = FACE_OUTER_BOUND ( 'NONE', #134, .T. ) ;
#218 = ORIENTED_EDGE ( 'NONE', *, *, #261, .F. ) ;
#219 = CLOSED_SHELL ( 'NONE', ( #63, #212, #20, #28, #203, #29, #76, #228, #188 ) ) ;
#220 = ORIENTED_EDGE ( 'NONE', *, *, #250, .F. ) ;
#221 = CIRCLE ( 'NONE', #69, 7.000000000000000000 ) ;
#222 = DIRECTION ( 'NONE',  ( -1.000000000000000000, 0.000000000000000000, 0.000000000000000000 ) ) ;
#223 = CARTESIAN_POINT ( 'NONE',  ( 0.000000000000000000, 0.000000000000000000, 5.000000000000000000 ) ) ;
#224 = CARTESIAN_POINT ( 'NONE',  ( 0.000000000000000000, 0.000000000000000000, 5.000000000000000000 ) ) ;
#225 = CARTESIAN_POINT ( 'NONE',  ( 4.500000000000000888, 5.510910596163089556E-16, 205.0000000000000284 ) ) ;
#226 = CARTESIAN_POINT ( 'NONE',  ( 0.000000000000000000, 0.000000000000000000, 205.0000000000000284 ) ) ;
#227 = DIRECTION ( 'NONE',  ( 0.000000000000000000, 0.000000000000000000, 1.000000000000000000 ) ) ;
#228 = ADVANCED_FACE ( 'NONE', ( #138 ), #302, .T. ) ;
#229 = EDGE_CURVE ( 'NONE', #153, #11, #266, .T. ) ;
#230 = CIRCLE ( 'NONE', #103, 4.700000000000000178 ) ;
#231 = CALENDAR_DATE ( 2022, 7, 7 ) ;
#232 = DATE_AND_TIME ( #279, #175 ) ;
#233 = MANIFOLD_SOLID_BREP ( 'Zaoblit1', #219 ) ;
#234 = APPROVAL_ROLE ( '' ) ;
#235 = LOCAL_TIME ( 11, 56, 58.00000000000000000, #4 ) ;
#236 = CARTESIAN_POINT ( 'NONE',  ( 0.000000000000000000, 0.000000000000000000, 5.200000000000009948 ) ) ;
#237 = DIRECTION ( 'NONE',  ( 0.000000000000000000, 0.000000000000000000, 1.000000000000000000 ) ) ;
#238 = PERSON ( 'NEURÈENÝ', 'NEURÈENÝ', 'NEURÈENÝ', ('NEURÈENÝ'), ('NEURÈENÝ'), ('NEURÈENÝ') ) ;
#239 = DESIGN_CONTEXT ( 'detailed design', #272, 'design' ) ;
#240 = DIRECTION ( 'NONE',  ( -0.000000000000000000, -0.000000000000000000, -1.000000000000000000 ) ) ;
#241 = CC_DESIGN_DATE_AND_TIME_ASSIGNMENT ( #27, #204, ( #130 ) ) ;
#242 = EDGE_CURVE ( 'NONE', #11, #34, #26, .T. ) ;
#243 = EDGE_LOOP ( 'NONE', ( #112, #259 ) ) ;
#244 = ORIENTED_EDGE ( 'NONE', *, *, #116, .F. ) ;
#245 = ORIENTED_EDGE ( 'NONE', *, *, #120, .F. ) ;
#246 = DIRECTION ( 'NONE',  ( -0.000000000000000000, -0.000000000000000000, -1.000000000000000000 ) ) ;
#247 = CARTESIAN_POINT ( 'NONE',  ( 0.000000000000000000, 0.000000000000000000, 5.200000000000009948 ) ) ;
#248 = CARTESIAN_POINT ( 'NONE',  ( 0.000000000000000000, 0.000000000000000000, 205.0000000000000284 ) ) ;
#249 = DIRECTION ( 'NONE',  ( -1.000000000000000000, 0.000000000000000000, 0.000000000000000000 ) ) ;
#250 = EDGE_CURVE ( 'NONE', #166, #105, #221, .T. ) ;
#251 = DIRECTION ( 'NONE',  ( -0.000000000000000000, -0.000000000000000000, -1.000000000000000000 ) ) ;
#252 = AXIS2_PLACEMENT_3D ( 'NONE', #215, #172, #294 ) ;
#253 = AXIS2_PLACEMENT_3D ( 'NONE', #224, #67, #273 ) ;
#254 = DIRECTION ( 'NONE',  ( 1.224646799147353207E-16, 1.000000000000000000, -0.000000000000000000 ) ) ;
#255 = MECHANICAL_CONTEXT ( 'NONE', #184, 'mechanical' ) ;
#256 = APPLICATION_PROTOCOL_DEFINITION ( 'international standard', 'config_control_design', 1994, #272 ) ;
#257 = CC_DESIGN_APPROVAL ( #66, ( #90 ) ) ;
#258 = COORDINATED_UNIVERSAL_TIME_OFFSET ( 1, 0, .AHEAD. ) ;
#259 = ORIENTED_EDGE ( 'NONE', *, *, #104, .T. ) ;
#260 = CC_DESIGN_PERSON_AND_ORGANIZATION_ASSIGNMENT ( #144, #75, ( #130 ) ) ;
#261 = EDGE_CURVE ( 'NONE', #269, #34, #230, .T. ) ;
#262 = PLANE ( 'NONE',  #94 ) ;
#263 = UNCERTAINTY_MEASURE_WITH_UNIT (LENGTH_MEASURE( 1.000000000000000082E-05 ), #77, 'distance_accuracy_value', 'NONE');
#264 = DIRECTION ( 'NONE',  ( 1.000000000000000000, 0.000000000000000000, 0.000000000000000000 ) ) ;
#265 = CIRCLE ( 'NONE', #3, 0.1999999999999996503 ) ;
#266 = CIRCLE ( 'NONE', #124, 4.500000000000000888 ) ;
#267 = VERTEX_POINT ( 'NONE', #225 ) ;
#268 = PERSON_AND_ORGANIZATION ( #238, #180 ) ;
#269 = VERTEX_POINT ( 'NONE', #93 ) ;
#270 = ORIENTED_EDGE ( 'NONE', *, *, #53, .F. ) ;
#271 = PRODUCT_DEFINITION_SHAPE ( 'NONE', 'NONE',  #39 ) ;
#272 = APPLICATION_CONTEXT ( 'configuration controlled 3d designs of mechanical parts and assemblies' ) ;
#273 = DIRECTION ( 'NONE',  ( 1.000000000000000000, 0.000000000000000000, -0.000000000000000000 ) ) ;
#274 = VECTOR ( 'NONE', #71, 1000.000000000000000 ) ;
#275 = CARTESIAN_POINT ( 'NONE',  ( 0.000000000000000000, 0.000000000000000000, 0.000000000000000000 ) ) ;
#276 = EDGE_CURVE ( 'NONE', #105, #166, #306, .T. ) ;
#277 = DIRECTION ( 'NONE',  ( 0.000000000000000000, -1.000000000000000000, 0.000000000000000000 ) ) ;
#278 = FACE_OUTER_BOUND ( 'NONE', #186, .T. ) ;
#279 = CALENDAR_DATE ( 2022, 7, 7 ) ;
#280 = SECURITY_CLASSIFICATION_LEVEL ( 'unclassified' ) ;
#281 = DIRECTION ( 'NONE',  ( 1.000000000000000000, 0.000000000000000000, 0.000000000000000000 ) ) ;
#282 = AXIS2_PLACEMENT_3D ( 'NONE', #226, #199, #222 ) ;
#283 = CIRCLE ( 'NONE', #47, 7.000000000000000000 ) ;
#284 = PERSON_AND_ORGANIZATION ( #238, #180 ) ;
#285 = APPROVAL ( #101, 'NEURÈENÝ' ) ;
#286 = CARTESIAN_POINT ( 'NONE',  ( 0.000000000000000000, 0.000000000000000000, 0.000000000000000000 ) ) ;
#287 = ORIENTED_EDGE ( 'NONE', *, *, #157, .T. ) ;
#288 = CC_DESIGN_PERSON_AND_ORGANIZATION_ASSIGNMENT ( #202, #99, ( #39 ) ) ;
#289 = AXIS2_PLACEMENT_3D ( 'NONE', #248, #155, #249 ) ;
#290 = ORIENTED_EDGE ( 'NONE', *, *, #104, .F. ) ;
#291 = ORIENTED_EDGE ( 'NONE', *, *, #55, .T. ) ;
#292 = ORIENTED_EDGE ( 'NONE', *, *, #300, .F. ) ;
#293 = EDGE_LOOP ( 'NONE', ( #152, #244, #291, #38 ) ) ;
#294 = DIRECTION ( 'NONE',  ( -1.000000000000000000, 0.000000000000000000, 0.000000000000000000 ) ) ;
#295 = CIRCLE ( 'NONE', #190, 4.500000000000000888 ) ;
#296 =( GEOMETRIC_REPRESENTATION_CONTEXT ( 3 ) GLOBAL_UNCERTAINTY_ASSIGNED_CONTEXT ( ( #263 ) ) GLOBAL_UNIT_ASSIGNED_CONTEXT ( ( #77, #208, #25 ) ) REPRESENTATION_CONTEXT ( 'NONE', 'WORKASPACE' ) );
#297 = DIRECTION ( 'NONE',  ( 0.000000000000000000, 0.000000000000000000, 1.000000000000000000 ) ) ;
#298 = CYLINDRICAL_SURFACE ( 'NONE', #252, 7.000000000000000000 ) ;
#299 = DIRECTION ( 'NONE',  ( -0.000000000000000000, -0.000000000000000000, -1.000000000000000000 ) ) ;
#300 = EDGE_CURVE ( 'NONE', #11, #153, #95, .T. ) ;
#301 = AXIS2_PLACEMENT_3D ( 'NONE', #286, #33, #30 ) ;
#302 = PLANE ( 'NONE',  #37 ) ;
#303 = DIRECTION ( 'NONE',  ( 0.000000000000000000, 0.000000000000000000, 1.000000000000000000 ) ) ;
#304 = DIRECTION ( 'NONE',  ( 1.000000000000000000, 0.000000000000000000, 0.000000000000000000 ) ) ;
#305 = PLANE ( 'NONE',  #253 ) ;
#306 = CIRCLE ( 'NONE', #301, 7.000000000000000000 ) ;
#307 = PERSON_AND_ORGANIZATION_ROLE ( 'design_supplier' ) ;
ENDSEC;
END-ISO-10303-21;
