ISO-10303-21;
HEADER;
FILE_DESCRIPTION (( 'STEP AP203' ),
    '1' );
FILE_NAME ('30a1.STEP',
    '2023-02-12T12:19:55',
    ( '' ),
    ( '' ),
    'SwSTEP 2.0',
    'SolidWorks 2019',
    '' );
FILE_SCHEMA (( 'CONFIG_CONTROL_DESIGN' ));
ENDSEC;

DATA;
#1 = SHAPE_DEFINITION_REPRESENTATION ( #229, #22 ) ;
#2 = ORIENTED_EDGE ( 'NONE', *, *, #175, .F. ) ;
#3 = ORIENTED_EDGE ( 'NONE', *, *, #17, .T. ) ;
#4 = LOCAL_TIME ( 13, 19, 55.00000000000000000, #236 ) ;
#5 = DIRECTION ( 'NONE',  ( -0.000000000000000000, -0.000000000000000000, -1.000000000000000000 ) ) ;
#6 = ORIENTED_EDGE ( 'NONE', *, *, #84, .F. ) ;
#7 = CC_DESIGN_PERSON_AND_ORGANIZATION_ASSIGNMENT ( #126, #232, ( #29 ) ) ;
#8 = DIRECTION ( 'NONE',  ( 1.000000000000000000, 0.000000000000000000, 0.000000000000000000 ) ) ;
#9 = CARTESIAN_POINT ( 'NONE',  ( 0.000000000000000000, 0.000000000000000000, 0.000000000000000000 ) ) ;
#10 = DIRECTION ( 'NONE',  ( 1.000000000000000000, 0.000000000000000000, 0.000000000000000000 ) ) ;
#11 = PRODUCT ( '30a1', '30a1', '', ( #35 ) ) ;
#12 = CIRCLE ( 'NONE', #219, 6.000000000000000888 ) ;
#13 = AXIS2_PLACEMENT_3D ( 'NONE', #30, #150, #10 ) ;
#14 = APPLICATION_PROTOCOL_DEFINITION ( 'international standard', 'config_control_design', 1994, #161 ) ;
#15 = PERSON_AND_ORGANIZATION ( #120, #149 ) ;
#16 = EDGE_CURVE ( 'NONE', #185, #221, #246, .T. ) ;
#17 = EDGE_CURVE ( 'NONE', #182, #202, #49, .T. ) ;
#18 = CARTESIAN_POINT ( 'NONE',  ( -3.000000000000000444, 0.000000000000000000, 5.000000000000000000 ) ) ;
#19 = DATE_AND_TIME ( #125, #4 ) ;
#20 = AXIS2_PLACEMENT_3D ( 'NONE', #189, #191, #130 ) ;
#21 = PERSON_AND_ORGANIZATION ( #120, #149 ) ;
#22 = ADVANCED_BREP_SHAPE_REPRESENTATION ( '30a1', ( #166, #89 ), #247 ) ;
#23 = ORIENTED_EDGE ( 'NONE', *, *, #222, .T. ) ;
#24 = EDGE_LOOP ( 'NONE', ( #25, #3 ) ) ;
#25 = ORIENTED_EDGE ( 'NONE', *, *, #212, .T. ) ;
#26 = APPROVAL ( #57, 'NEURÈENÝ' ) ;
#27 = CARTESIAN_POINT ( 'NONE',  ( 0.000000000000000000, 0.000000000000000000, 5.000000000000000000 ) ) ;
#28 = ORIENTED_EDGE ( 'NONE', *, *, #114, .F. ) ;
#29 = PRODUCT_DEFINITION_FORMATION_WITH_SPECIFIED_SOURCE ( 'LIBOVOLNÝ', '', #11, .NOT_KNOWN. ) ;
#30 = CARTESIAN_POINT ( 'NONE',  ( 0.000000000000000000, 0.000000000000000000, 5.000000000000000000 ) ) ;
#31 = FACE_OUTER_BOUND ( 'NONE', #91, .T. ) ;
#32 = AXIS2_PLACEMENT_3D ( 'NONE', #131, #151, #51 ) ;
#33 = FACE_OUTER_BOUND ( 'NONE', #128, .T. ) ;
#34 = CARTESIAN_POINT ( 'NONE',  ( -6.000000000000000888, 0.000000000000000000, 0.000000000000000000 ) ) ;
#35 = MECHANICAL_CONTEXT ( 'NONE', #161, 'mechanical' ) ;
#36 = SECURITY_CLASSIFICATION_LEVEL ( 'unclassified' ) ;
#37 = CARTESIAN_POINT ( 'NONE',  ( 6.000000000000000888, 7.347880794884120722E-16, 5.000000000000000000 ) ) ;
#38 = LOCAL_TIME ( 13, 19, 55.00000000000000000, #107 ) ;
#39 = PERSON_AND_ORGANIZATION_ROLE ( 'creator' ) ;
#40 = COORDINATED_UNIVERSAL_TIME_OFFSET ( 1, 0, .AHEAD. ) ;
#41 = CIRCLE ( 'NONE', #81, 6.000000000000000888 ) ;
#42 = ORIENTED_EDGE ( 'NONE', *, *, #152, .T. ) ;
#43 = ORIENTED_EDGE ( 'NONE', *, *, #114, .T. ) ;
#44 = FACE_BOUND ( 'NONE', #45, .T. ) ;
#45 = EDGE_LOOP ( 'NONE', ( #188, #28 ) ) ;
#46 = DIRECTION ( 'NONE',  ( -0.000000000000000000, -0.000000000000000000, -1.000000000000000000 ) ) ;
#47 = CYLINDRICAL_SURFACE ( 'NONE', #61, 3.000000000000000444 ) ;
#48 = LINE ( 'NONE', #209, #133 ) ;
#49 = CIRCLE ( 'NONE', #254, 3.000000000000000444 ) ;
#50 = CC_DESIGN_APPROVAL ( #26, ( #29 ) ) ;
#51 = DIRECTION ( 'NONE',  ( 1.000000000000000000, 0.000000000000000000, 0.000000000000000000 ) ) ;
#52 = CC_DESIGN_DATE_AND_TIME_ASSIGNMENT ( #19, #104, ( #88 ) ) ;
#53 = CARTESIAN_POINT ( 'NONE',  ( 3.000000000000000444, 3.673940397442060361E-16, 100.0000000000000000 ) ) ;
#54 = LOCAL_TIME ( 13, 19, 55.00000000000000000, #199 ) ;
#55 = PERSON_AND_ORGANIZATION_ROLE ( 'classification_officer' ) ;
#56 = CARTESIAN_POINT ( 'NONE',  ( -3.000000000000000444, 0.000000000000000000, 100.0000000000000000 ) ) ;
#57 = APPROVAL_STATUS ( 'not_yet_approved' ) ;
#58 = DIRECTION ( 'NONE',  ( 1.000000000000000000, 0.000000000000000000, -0.000000000000000000 ) ) ;
#59 = DIRECTION ( 'NONE',  ( 0.000000000000000000, 0.000000000000000000, 1.000000000000000000 ) ) ;
#60 = EDGE_CURVE ( 'NONE', #202, #183, #48, .T. ) ;
#61 = AXIS2_PLACEMENT_3D ( 'NONE', #67, #93, #208 ) ;
#62 = ORIENTED_EDGE ( 'NONE', *, *, #60, .T. ) ;
#63 = APPROVAL_PERSON_ORGANIZATION ( #231, #26, #249 ) ;
#64 = ADVANCED_FACE ( 'NONE', ( #44, #31 ), #72, .T. ) ;
#65 = ORIENTED_EDGE ( 'NONE', *, *, #16, .T. ) ;
#66 = EDGE_CURVE ( 'NONE', #183, #240, #179, .T. ) ;
#67 = CARTESIAN_POINT ( 'NONE',  ( 0.000000000000000000, 0.000000000000000000, 100.0000000000000000 ) ) ;
#68 = ORIENTED_EDGE ( 'NONE', *, *, #87, .F. ) ;
#69 = AXIS2_PLACEMENT_3D ( 'NONE', #216, #238, #123 ) ;
#70 = DIRECTION ( 'NONE',  ( -0.000000000000000000, -0.000000000000000000, -1.000000000000000000 ) ) ;
#71 = ORIENTED_EDGE ( 'NONE', *, *, #156, .T. ) ;
#72 = PLANE ( 'NONE',  #20 ) ;
#73 = DIRECTION ( 'NONE',  ( -1.000000000000000000, 0.000000000000000000, 0.000000000000000000 ) ) ;
#74 = ORIENTED_EDGE ( 'NONE', *, *, #156, .F. ) ;
#75 = CC_DESIGN_APPROVAL ( #124, ( #88 ) ) ;
#76 = APPROVAL ( #176, 'NEURÈENÝ' ) ;
#77 = COORDINATED_UNIVERSAL_TIME_OFFSET ( 1, 0, .AHEAD. ) ;
#78 =( LENGTH_UNIT ( ) NAMED_UNIT ( * ) SI_UNIT ( .MILLI., .METRE. ) );
#79 = CALENDAR_DATE ( 2023, 12, 2 ) ;
#80 = CARTESIAN_POINT ( 'NONE',  ( 0.000000000000000000, 0.000000000000000000, 0.000000000000000000 ) ) ;
#81 = AXIS2_PLACEMENT_3D ( 'NONE', #134, #223, #211 ) ;
#82 =( NAMED_UNIT ( * ) PLANE_ANGLE_UNIT ( ) SI_UNIT ( $, .RADIAN. ) );
#83 = ORIENTED_EDGE ( 'NONE', *, *, #60, .F. ) ;
#84 = EDGE_CURVE ( 'NONE', #164, #110, #97, .T. ) ;
#85 = ORIENTED_EDGE ( 'NONE', *, *, #175, .T. ) ;
#86 = ORIENTED_EDGE ( 'NONE', *, *, #87, .T. ) ;
#87 = EDGE_CURVE ( 'NONE', #221, #110, #230, .T. ) ;
#88 = SECURITY_CLASSIFICATION ( '', '', #36 ) ;
#89 = AXIS2_PLACEMENT_3D ( 'NONE', #181, #173, #138 ) ;
#90 = DIRECTION ( 'NONE',  ( -0.000000000000000000, -0.000000000000000000, -1.000000000000000000 ) ) ;
#91 = EDGE_LOOP ( 'NONE', ( #42, #23 ) ) ;
#92 = AXIS2_PLACEMENT_3D ( 'NONE', #225, #169, #8 ) ;
#93 = DIRECTION ( 'NONE',  ( -0.000000000000000000, -0.000000000000000000, -1.000000000000000000 ) ) ;
#94 = DESIGN_CONTEXT ( 'detailed design', #237, 'design' ) ;
#95 = ADVANCED_FACE ( 'NONE', ( #192 ), #47, .T. ) ;
#96 = DIRECTION ( 'NONE',  ( 1.000000000000000000, 0.000000000000000000, -0.000000000000000000 ) ) ;
#97 = LINE ( 'NONE', #115, #171 ) ;
#98 = CIRCLE ( 'NONE', #213, 6.000000000000000888 ) ;
#99 = PERSON_AND_ORGANIZATION_ROLE ( 'design_owner' ) ;
#100 = DATE_AND_TIME ( #196, #135 ) ;
#101 = PERSON_AND_ORGANIZATION ( #120, #149 ) ;
#102 = CALENDAR_DATE ( 2023, 12, 2 ) ;
#103 = DIRECTION ( 'NONE',  ( 0.000000000000000000, 0.000000000000000000, 1.000000000000000000 ) ) ;
#104 = DATE_TIME_ROLE ( 'classification_date' ) ;
#105 = CLOSED_SHELL ( 'NONE', ( #95, #155, #220, #64, #117, #136, #201 ) ) ;
#106 = DIRECTION ( 'NONE',  ( 0.000000000000000000, 0.000000000000000000, 1.000000000000000000 ) ) ;
#107 = COORDINATED_UNIVERSAL_TIME_OFFSET ( 1, 0, .AHEAD. ) ;
#108 = EDGE_LOOP ( 'NONE', ( #68, #2 ) ) ;
#109 = EDGE_LOOP ( 'NONE', ( #144, #71, #43, #83 ) ) ;
#110 = VERTEX_POINT ( 'NONE', #143 ) ;
#111 = DIRECTION ( 'NONE',  ( -1.000000000000000000, 0.000000000000000000, 0.000000000000000000 ) ) ;
#112 = ORIENTED_EDGE ( 'NONE', *, *, #152, .F. ) ;
#113 = DIRECTION ( 'NONE',  ( 1.000000000000000000, 0.000000000000000000, 0.000000000000000000 ) ) ;
#114 = EDGE_CURVE ( 'NONE', #240, #183, #165, .T. ) ;
#115 = CARTESIAN_POINT ( 'NONE',  ( 6.000000000000000888, 7.347880794884120722E-16, 5.000000000000000000 ) ) ;
#116 = LINE ( 'NONE', #187, #248 ) ;
#117 = ADVANCED_FACE ( 'NONE', ( #242 ), #132, .F. ) ;
#118 = AXIS2_PLACEMENT_3D ( 'NONE', #250, #106, #58 ) ;
#119 = CARTESIAN_POINT ( 'NONE',  ( 0.000000000000000000, 0.000000000000000000, 5.000000000000000000 ) ) ;
#120 = PERSON ( 'NEURÈENÝ', 'NEURÈENÝ', 'NEURÈENÝ', ('NEURÈENÝ'), ('NEURÈENÝ'), ('NEURÈENÝ') ) ;
#121 = DATE_AND_TIME ( #79, #38 ) ;
#122 = PERSON_AND_ORGANIZATION ( #120, #149 ) ;
#123 = DIRECTION ( 'NONE',  ( -1.000000000000000000, 0.000000000000000000, 0.000000000000000000 ) ) ;
#124 = APPROVAL ( #255, 'NEURÈENÝ' ) ;
#125 = CALENDAR_DATE ( 2023, 12, 2 ) ;
#126 = PERSON_AND_ORGANIZATION ( #120, #149 ) ;
#127 = ORIENTED_EDGE ( 'NONE', *, *, #212, .F. ) ;
#128 = EDGE_LOOP ( 'NONE', ( #239, #243, #85, #205 ) ) ;
#129 = VECTOR ( 'NONE', #227, 1000.000000000000000 ) ;
#130 = DIRECTION ( 'NONE',  ( 1.000000000000000000, 0.000000000000000000, -0.000000000000000000 ) ) ;
#131 = CARTESIAN_POINT ( 'NONE',  ( 0.000000000000000000, 0.000000000000000000, 5.000000000000000000 ) ) ;
#132 = PLANE ( 'NONE',  #193 ) ;
#133 = VECTOR ( 'NONE', #46, 1000.000000000000000 ) ;
#134 = CARTESIAN_POINT ( 'NONE',  ( 0.000000000000000000, 0.000000000000000000, 5.000000000000000000 ) ) ;
#135 = LOCAL_TIME ( 13, 19, 55.00000000000000000, #77 ) ;
#136 = ADVANCED_FACE ( 'NONE', ( #168 ), #245, .T. ) ;
#137 = DIRECTION ( 'NONE',  ( 1.000000000000000000, 0.000000000000000000, 0.000000000000000000 ) ) ;
#138 = DIRECTION ( 'NONE',  ( 1.000000000000000000, 0.000000000000000000, 0.000000000000000000 ) ) ;
#139 = CARTESIAN_POINT ( 'NONE',  ( -6.000000000000000888, 0.000000000000000000, 5.000000000000000000 ) ) ;
#140 = PERSON_AND_ORGANIZATION ( #120, #149 ) ;
#141 = APPROVAL_PERSON_ORGANIZATION ( #101, #76, #252 ) ;
#142 = PERSON_AND_ORGANIZATION ( #120, #149 ) ;
#143 = CARTESIAN_POINT ( 'NONE',  ( 6.000000000000000888, 7.347880794884120722E-16, 0.000000000000000000 ) ) ;
#144 = ORIENTED_EDGE ( 'NONE', *, *, #17, .F. ) ;
#145 = CIRCLE ( 'NONE', #210, 3.000000000000000444 ) ;
#146 = CC_DESIGN_PERSON_AND_ORGANIZATION_ASSIGNMENT ( #142, #55, ( #88 ) ) ;
#147 = DIRECTION ( 'NONE',  ( 0.000000000000000000, 0.000000000000000000, 1.000000000000000000 ) ) ;
#148 = DIRECTION ( 'NONE',  ( -0.000000000000000000, -0.000000000000000000, -1.000000000000000000 ) ) ;
#149 = ORGANIZATION ( 'NEURÈENÝ', 'NEURÈENÝ', '' ) ;
#150 = DIRECTION ( 'NONE',  ( 0.000000000000000000, 0.000000000000000000, 1.000000000000000000 ) ) ;
#151 = DIRECTION ( 'NONE',  ( 0.000000000000000000, 0.000000000000000000, 1.000000000000000000 ) ) ;
#152 = EDGE_CURVE ( 'NONE', #185, #164, #41, .T. ) ;
#153 = DATE_AND_TIME ( #177, #54 ) ;
#154 = DIRECTION ( 'NONE',  ( 1.000000000000000000, 0.000000000000000000, 0.000000000000000000 ) ) ;
#155 = ADVANCED_FACE ( 'NONE', ( #33 ), #163, .T. ) ;
#156 = EDGE_CURVE ( 'NONE', #182, #240, #116, .T. ) ;
#157 = DIRECTION ( 'NONE',  ( 0.000000000000000000, 0.000000000000000000, 1.000000000000000000 ) ) ;
#158 = DATE_TIME_ROLE ( 'creation_date' ) ;
#159 = DIRECTION ( 'NONE',  ( 1.000000000000000000, 0.000000000000000000, 0.000000000000000000 ) ) ;
#160 = ORIENTED_EDGE ( 'NONE', *, *, #66, .T. ) ;
#161 = APPLICATION_CONTEXT ( 'configuration controlled 3d designs of mechanical parts and assemblies' ) ;
#162 = CC_DESIGN_PERSON_AND_ORGANIZATION_ASSIGNMENT ( #21, #251, ( #195 ) ) ;
#163 = CYLINDRICAL_SURFACE ( 'NONE', #190, 6.000000000000000888 ) ;
#164 = VERTEX_POINT ( 'NONE', #37 ) ;
#165 = CIRCLE ( 'NONE', #13, 3.000000000000000444 ) ;
#166 = MANIFOLD_SOLID_BREP ( 'Pøidat vysunutím3', #105 ) ;
#167 = CARTESIAN_POINT ( 'NONE',  ( 0.000000000000000000, 0.000000000000000000, 100.0000000000000000 ) ) ;
#168 = FACE_OUTER_BOUND ( 'NONE', #207, .T. ) ;
#169 = DIRECTION ( 'NONE',  ( 0.000000000000000000, 0.000000000000000000, 1.000000000000000000 ) ) ;
#170 = UNCERTAINTY_MEASURE_WITH_UNIT (LENGTH_MEASURE( 1.000000000000000082E-05 ), #78, 'distance_accuracy_value', 'NONE');
#171 = VECTOR ( 'NONE', #70, 1000.000000000000000 ) ;
#172 = APPROVAL_DATE_TIME ( #100, #26 ) ;
#173 = DIRECTION ( 'NONE',  ( 0.000000000000000000, 0.000000000000000000, 1.000000000000000000 ) ) ;
#174 = APPROVAL_DATE_TIME ( #153, #76 ) ;
#175 = EDGE_CURVE ( 'NONE', #110, #221, #12, .T. ) ;
#176 = APPROVAL_STATUS ( 'not_yet_approved' ) ;
#177 = CALENDAR_DATE ( 2023, 12, 2 ) ;
#178 = CARTESIAN_POINT ( 'NONE',  ( 3.000000000000000444, 3.673940397442060361E-16, 5.000000000000000000 ) ) ;
#179 = CIRCLE ( 'NONE', #32, 3.000000000000000444 ) ;
#180 = APPROVAL_DATE_TIME ( #121, #124 ) ;
#181 = CARTESIAN_POINT ( 'NONE',  ( 0.000000000000000000, 0.000000000000000000, 0.000000000000000000 ) ) ;
#182 = VERTEX_POINT ( 'NONE', #53 ) ;
#183 = VERTEX_POINT ( 'NONE', #18 ) ;
#184 = APPROVAL_PERSON_ORGANIZATION ( #140, #124, #200 ) ;
#185 = VERTEX_POINT ( 'NONE', #139 ) ;
#186 = CC_DESIGN_SECURITY_CLASSIFICATION ( #88, ( #29 ) ) ;
#187 = CARTESIAN_POINT ( 'NONE',  ( 3.000000000000000444, 3.673940397442060361E-16, 100.0000000000000000 ) ) ;
#188 = ORIENTED_EDGE ( 'NONE', *, *, #66, .F. ) ;
#189 = CARTESIAN_POINT ( 'NONE',  ( 0.000000000000000000, 0.000000000000000000, 5.000000000000000000 ) ) ;
#190 = AXIS2_PLACEMENT_3D ( 'NONE', #27, #90, #111 ) ;
#191 = DIRECTION ( 'NONE',  ( 0.000000000000000000, 0.000000000000000000, 1.000000000000000000 ) ) ;
#192 = FACE_OUTER_BOUND ( 'NONE', #109, .T. ) ;
#193 = AXIS2_PLACEMENT_3D ( 'NONE', #9, #206, #96 ) ;
#194 = CC_DESIGN_PERSON_AND_ORGANIZATION_ASSIGNMENT ( #15, #39, ( #29 ) ) ;
#195 = PRODUCT_DEFINITION ( 'NEZNÁMÝ', '', #29, #94 ) ;
#196 = CALENDAR_DATE ( 2023, 12, 2 ) ;
#197 = APPLICATION_PROTOCOL_DEFINITION ( 'international standard', 'config_control_design', 1994, #237 ) ;
#198 = CYLINDRICAL_SURFACE ( 'NONE', #69, 6.000000000000000888 ) ;
#199 = COORDINATED_UNIVERSAL_TIME_OFFSET ( 1, 0, .AHEAD. ) ;
#200 = APPROVAL_ROLE ( '' ) ;
#201 = ADVANCED_FACE ( 'NONE', ( #215 ), #233, .T. ) ;
#202 = VERTEX_POINT ( 'NONE', #56 ) ;
#203 = CC_DESIGN_PERSON_AND_ORGANIZATION_ASSIGNMENT ( #122, #99, ( #11 ) ) ;
#204 = LOCAL_TIME ( 13, 19, 55.00000000000000000, #40 ) ;
#205 = ORIENTED_EDGE ( 'NONE', *, *, #16, .F. ) ;
#206 = DIRECTION ( 'NONE',  ( 0.000000000000000000, 0.000000000000000000, 1.000000000000000000 ) ) ;
#207 = EDGE_LOOP ( 'NONE', ( #74, #127, #62, #160 ) ) ;
#208 = DIRECTION ( 'NONE',  ( -1.000000000000000000, 0.000000000000000000, 0.000000000000000000 ) ) ;
#209 = CARTESIAN_POINT ( 'NONE',  ( -3.000000000000000444, 0.000000000000000000, 100.0000000000000000 ) ) ;
#210 = AXIS2_PLACEMENT_3D ( 'NONE', #253, #157, #137 ) ;
#211 = DIRECTION ( 'NONE',  ( 1.000000000000000000, 0.000000000000000000, 0.000000000000000000 ) ) ;
#212 = EDGE_CURVE ( 'NONE', #202, #182, #145, .T. ) ;
#213 = AXIS2_PLACEMENT_3D ( 'NONE', #119, #59, #154 ) ;
#214 = FACE_OUTER_BOUND ( 'NONE', #224, .T. ) ;
#215 = FACE_OUTER_BOUND ( 'NONE', #24, .T. ) ;
#216 = CARTESIAN_POINT ( 'NONE',  ( 0.000000000000000000, 0.000000000000000000, 5.000000000000000000 ) ) ;
#217 = DATE_AND_TIME ( #102, #204 ) ;
#218 = PRODUCT_RELATED_PRODUCT_CATEGORY ( 'detail', '', ( #11 ) ) ;
#219 = AXIS2_PLACEMENT_3D ( 'NONE', #80, #103, #159 ) ;
#220 = ADVANCED_FACE ( 'NONE', ( #214 ), #198, .T. ) ;
#221 = VERTEX_POINT ( 'NONE', #34 ) ;
#222 = EDGE_CURVE ( 'NONE', #164, #185, #98, .T. ) ;
#223 = DIRECTION ( 'NONE',  ( 0.000000000000000000, 0.000000000000000000, 1.000000000000000000 ) ) ;
#224 = EDGE_LOOP ( 'NONE', ( #6, #112, #65, #86 ) ) ;
#225 = CARTESIAN_POINT ( 'NONE',  ( 0.000000000000000000, 0.000000000000000000, 0.000000000000000000 ) ) ;
#226 = CARTESIAN_POINT ( 'NONE',  ( 0.000000000000000000, 0.000000000000000000, 100.0000000000000000 ) ) ;
#227 = DIRECTION ( 'NONE',  ( -0.000000000000000000, -0.000000000000000000, -1.000000000000000000 ) ) ;
#228 = AXIS2_PLACEMENT_3D ( 'NONE', #167, #148, #73 ) ;
#229 = PRODUCT_DEFINITION_SHAPE ( 'NONE', 'NONE',  #195 ) ;
#230 = CIRCLE ( 'NONE', #92, 6.000000000000000888 ) ;
#231 = PERSON_AND_ORGANIZATION ( #120, #149 ) ;
#232 = PERSON_AND_ORGANIZATION_ROLE ( 'design_supplier' ) ;
#233 = PLANE ( 'NONE',  #118 ) ;
#234 = CC_DESIGN_DATE_AND_TIME_ASSIGNMENT ( #217, #158, ( #195 ) ) ;
#235 =( NAMED_UNIT ( * ) SI_UNIT ( $, .STERADIAN. ) SOLID_ANGLE_UNIT ( ) );
#236 = COORDINATED_UNIVERSAL_TIME_OFFSET ( 1, 0, .AHEAD. ) ;
#237 = APPLICATION_CONTEXT ( 'configuration controlled 3d designs of mechanical parts and assemblies' ) ;
#238 = DIRECTION ( 'NONE',  ( -0.000000000000000000, -0.000000000000000000, -1.000000000000000000 ) ) ;
#239 = ORIENTED_EDGE ( 'NONE', *, *, #222, .F. ) ;
#240 = VERTEX_POINT ( 'NONE', #178 ) ;
#241 = CC_DESIGN_APPROVAL ( #76, ( #195 ) ) ;
#242 = FACE_OUTER_BOUND ( 'NONE', #108, .T. ) ;
#243 = ORIENTED_EDGE ( 'NONE', *, *, #84, .T. ) ;
#244 = CARTESIAN_POINT ( 'NONE',  ( -6.000000000000000888, 0.000000000000000000, 5.000000000000000000 ) ) ;
#245 = CYLINDRICAL_SURFACE ( 'NONE', #228, 3.000000000000000444 ) ;
#246 = LINE ( 'NONE', #244, #129 ) ;
#247 =( GEOMETRIC_REPRESENTATION_CONTEXT ( 3 ) GLOBAL_UNCERTAINTY_ASSIGNED_CONTEXT ( ( #170 ) ) GLOBAL_UNIT_ASSIGNED_CONTEXT ( ( #78, #82, #235 ) ) REPRESENTATION_CONTEXT ( 'NONE', 'WORKASPACE' ) );
#248 = VECTOR ( 'NONE', #5, 1000.000000000000000 ) ;
#249 = APPROVAL_ROLE ( '' ) ;
#250 = CARTESIAN_POINT ( 'NONE',  ( 0.000000000000000000, 0.000000000000000000, 100.0000000000000000 ) ) ;
#251 = PERSON_AND_ORGANIZATION_ROLE ( 'creator' ) ;
#252 = APPROVAL_ROLE ( '' ) ;
#253 = CARTESIAN_POINT ( 'NONE',  ( 0.000000000000000000, 0.000000000000000000, 100.0000000000000000 ) ) ;
#254 = AXIS2_PLACEMENT_3D ( 'NONE', #226, #147, #113 ) ;
#255 = APPROVAL_STATUS ( 'not_yet_approved' ) ;
ENDSEC;
END-ISO-10303-21;
