ISO-10303-21;
HEADER;
FILE_DESCRIPTION (( 'STEP AP203' ),
    '1' );
FILE_NAME ('a69e.STEP',
    '2022-07-07T10:06:20',
    ( '' ),
    ( '' ),
    'SwSTEP 2.0',
    'SolidWorks 2019',
    '' );
FILE_SCHEMA (( 'CONFIG_CONTROL_DESIGN' ));
ENDSEC;

DATA;
#1 = DIRECTION ( 'NONE',  ( 1.000000000000000000, 0.000000000000000000, 0.000000000000000000 ) ) ;
#2 = APPROVAL ( #81, 'NEURÈENÝ' ) ;
#3 = LOCAL_TIME ( 12, 6, 20.00000000000000000, #145 ) ;
#4 = CARTESIAN_POINT ( 'NONE',  ( 0.000000000000000000, 0.000000000000000000, 5.000000000000000000 ) ) ;
#5 = ORIENTED_EDGE ( 'NONE', *, *, #244, .T. ) ;
#6 = ORIENTED_EDGE ( 'NONE', *, *, #38, .F. ) ;
#7 = CIRCLE ( 'NONE', #151, 6.000000000000000888 ) ;
#8 = AXIS2_PLACEMENT_3D ( 'NONE', #227, #82, #128 ) ;
#9 = ORIENTED_EDGE ( 'NONE', *, *, #115, .T. ) ;
#10 = APPROVAL_ROLE ( '' ) ;
#11 = ORIENTED_EDGE ( 'NONE', *, *, #307, .F. ) ;
#12 = CC_DESIGN_APPROVAL ( #134, ( #305 ) ) ;
#13 = CARTESIAN_POINT ( 'NONE',  ( 0.000000000000000000, 0.000000000000000000, 0.000000000000000000 ) ) ;
#14 = PERSON_AND_ORGANIZATION ( #146, #86 ) ;
#15 = DIRECTION ( 'NONE',  ( -0.000000000000000000, -0.000000000000000000, -1.000000000000000000 ) ) ;
#16 = DATE_AND_TIME ( #197, #32 ) ;
#17 = CARTESIAN_POINT ( 'NONE',  ( -3.500000000000000000, 0.000000000000000000, 635.0000000000000000 ) ) ;
#18 = CC_DESIGN_SECURITY_CLASSIFICATION ( #305, ( #183 ) ) ;
#19 = DIRECTION ( 'NONE',  ( -0.000000000000000000, -0.000000000000000000, -1.000000000000000000 ) ) ;
#20 = APPLICATION_CONTEXT ( 'configuration controlled 3d designs of mechanical parts and assemblies' ) ;
#21 = DIRECTION ( 'NONE',  ( -0.000000000000000000, -0.000000000000000000, -1.000000000000000000 ) ) ;
#22 = FACE_OUTER_BOUND ( 'NONE', #118, .T. ) ;
#23 = AXIS2_PLACEMENT_3D ( 'NONE', #179, #135, #104 ) ;
#24 = CIRCLE ( 'NONE', #229, 6.000000000000000888 ) ;
#25 = DIRECTION ( 'NONE',  ( 1.000000000000000000, 0.000000000000000000, 0.000000000000000000 ) ) ;
#26 = CIRCLE ( 'NONE', #191, 3.700000000000000178 ) ;
#27 = CARTESIAN_POINT ( 'NONE',  ( 0.000000000000000000, 0.000000000000000000, 635.0000000000000000 ) ) ;
#28 = CALENDAR_DATE ( 2022, 7, 7 ) ;
#29 = ORIENTED_EDGE ( 'NONE', *, *, #307, .T. ) ;
#30 = EDGE_LOOP ( 'NONE', ( #5, #247 ) ) ;
#31 = LINE ( 'NONE', #123, #206 ) ;
#32 = LOCAL_TIME ( 12, 6, 20.00000000000000000, #251 ) ;
#33 = EDGE_LOOP ( 'NONE', ( #222, #242, #216, #11 ) ) ;
#34 = ORIENTED_EDGE ( 'NONE', *, *, #53, .T. ) ;
#35 = APPROVAL_DATE_TIME ( #16, #139 ) ;
#36 = PLANE ( 'NONE',  #217 ) ;
#37 = PERSON_AND_ORGANIZATION ( #146, #86 ) ;
#38 = EDGE_CURVE ( 'NONE', #55, #291, #31, .T. ) ;
#39 = LINE ( 'NONE', #204, #133 ) ;
#40 = FACE_OUTER_BOUND ( 'NONE', #169, .T. ) ;
#41 = PLANE ( 'NONE',  #235 ) ;
#42 = AXIS2_PLACEMENT_3D ( 'NONE', #88, #300, #59 ) ;
#43 = FACE_OUTER_BOUND ( 'NONE', #52, .T. ) ;
#44 = ADVANCED_FACE ( 'NONE', ( #62, #302 ), #36, .T. ) ;
#45 =( NAMED_UNIT ( * ) PLANE_ANGLE_UNIT ( ) SI_UNIT ( $, .RADIAN. ) );
#46 = DIRECTION ( 'NONE',  ( -1.000000000000000000, 0.000000000000000000, 0.000000000000000000 ) ) ;
#47 = EDGE_CURVE ( 'NONE', #79, #297, #74, .T. ) ;
#48 = DIRECTION ( 'NONE',  ( 1.000000000000000000, 0.000000000000000000, 0.000000000000000000 ) ) ;
#49 = CARTESIAN_POINT ( 'NONE',  ( -3.500000000000000000, 0.000000000000000000, 635.0000000000000000 ) ) ;
#50 = VERTEX_POINT ( 'NONE', #283 ) ;
#51 = ORIENTED_EDGE ( 'NONE', *, *, #167, .F. ) ;
#52 = EDGE_LOOP ( 'NONE', ( #243, #269, #29, #196 ) ) ;
#53 = EDGE_CURVE ( 'NONE', #291, #215, #149, .T. ) ;
#54 = PERSON_AND_ORGANIZATION_ROLE ( 'creator' ) ;
#55 = VERTEX_POINT ( 'NONE', #255 ) ;
#56 = APPROVAL_STATUS ( 'not_yet_approved' ) ;
#57 = ORIENTED_EDGE ( 'NONE', *, *, #287, .F. ) ;
#58 = CALENDAR_DATE ( 2022, 7, 7 ) ;
#59 = DIRECTION ( 'NONE',  ( -1.000000000000000000, 0.000000000000000000, 0.000000000000000000 ) ) ;
#60 = LOCAL_TIME ( 12, 6, 20.00000000000000000, #220 ) ;
#61 = APPROVAL_DATE_TIME ( #168, #2 ) ;
#62 = FACE_BOUND ( 'NONE', #98, .T. ) ;
#63 = LINE ( 'NONE', #155, #71 ) ;
#64 = CARTESIAN_POINT ( 'NONE',  ( 3.700000000000000178, 0.000000000000000000, 4.999999999999991118 ) ) ;
#65 = ADVANCED_FACE ( 'NONE', ( #40 ), #276, .T. ) ;
#66 = AXIS2_PLACEMENT_3D ( 'NONE', #112, #92, #48 ) ;
#67 = CARTESIAN_POINT ( 'NONE',  ( 0.000000000000000000, 0.000000000000000000, 635.0000000000000000 ) ) ;
#68 = APPLICATION_PROTOCOL_DEFINITION ( 'international standard', 'config_control_design', 1994, #294 ) ;
#69 = CARTESIAN_POINT ( 'NONE',  ( 0.000000000000000000, 0.000000000000000000, 0.000000000000000000 ) ) ;
#70 = DIRECTION ( 'NONE',  ( 0.000000000000000000, 0.000000000000000000, 1.000000000000000000 ) ) ;
#71 = VECTOR ( 'NONE', #19, 1000.000000000000000 ) ;
#72 = DIRECTION ( 'NONE',  ( -1.000000000000000000, 0.000000000000000000, 0.000000000000000000 ) ) ;
#73 = PERSON_AND_ORGANIZATION ( #146, #86 ) ;
#74 = CIRCLE ( 'NONE', #289, 3.700000000000000178 ) ;
#75 =( GEOMETRIC_REPRESENTATION_CONTEXT ( 3 ) GLOBAL_UNCERTAINTY_ASSIGNED_CONTEXT ( ( #100 ) ) GLOBAL_UNIT_ASSIGNED_CONTEXT ( ( #140, #45, #157 ) ) REPRESENTATION_CONTEXT ( 'NONE', 'WORKASPACE' ) );
#76 = AXIS2_PLACEMENT_3D ( 'NONE', #253, #177, #156 ) ;
#77 = ORIENTED_EDGE ( 'NONE', *, *, #280, .T. ) ;
#78 = ORIENTED_EDGE ( 'NONE', *, *, #115, .F. ) ;
#79 = VERTEX_POINT ( 'NONE', #64 ) ;
#80 = ORIENTED_EDGE ( 'NONE', *, *, #121, .T. ) ;
#81 = APPROVAL_STATUS ( 'not_yet_approved' ) ;
#82 = DIRECTION ( 'NONE',  ( 0.000000000000000000, -1.000000000000000000, 0.000000000000000000 ) ) ;
#83 = ADVANCED_FACE ( 'NONE', ( #178 ), #41, .T. ) ;
#84 = COORDINATED_UNIVERSAL_TIME_OFFSET ( 1, 0, .AHEAD. ) ;
#85 = CARTESIAN_POINT ( 'NONE',  ( -6.000000000000000888, 0.000000000000000000, 0.000000000000000000 ) ) ;
#86 = ORGANIZATION ( 'NEURÈENÝ', 'NEURÈENÝ', '' ) ;
#87 = DIRECTION ( 'NONE',  ( 0.000000000000000000, 0.000000000000000000, 1.000000000000000000 ) ) ;
#88 = CARTESIAN_POINT ( 'NONE',  ( 0.000000000000000000, 0.000000000000000000, 635.0000000000000000 ) ) ;
#89 = DIRECTION ( 'NONE',  ( -0.000000000000000000, -0.000000000000000000, -1.000000000000000000 ) ) ;
#90 = AXIS2_PLACEMENT_3D ( 'NONE', #67, #265, #260 ) ;
#91 = CIRCLE ( 'NONE', #76, 3.500000000000000000 ) ;
#92 = DIRECTION ( 'NONE',  ( 0.000000000000000000, 0.000000000000000000, 1.000000000000000000 ) ) ;
#93 = EDGE_CURVE ( 'NONE', #194, #293, #91, .T. ) ;
#94 = PERSON_AND_ORGANIZATION ( #146, #86 ) ;
#95 = LOCAL_TIME ( 12, 6, 20.00000000000000000, #249 ) ;
#96 = FACE_OUTER_BOUND ( 'NONE', #163, .T. ) ;
#97 = CARTESIAN_POINT ( 'NONE',  ( 0.000000000000000000, 0.000000000000000000, 635.0000000000000000 ) ) ;
#98 = EDGE_LOOP ( 'NONE', ( #166, #143 ) ) ;
#99 = ORIENTED_EDGE ( 'NONE', *, *, #160, .F. ) ;
#100 = UNCERTAINTY_MEASURE_WITH_UNIT (LENGTH_MEASURE( 1.000000000000000082E-05 ), #140, 'distance_accuracy_value', 'NONE');
#101 = EDGE_CURVE ( 'NONE', #295, #293, #39, .T. ) ;
#102 = EDGE_LOOP ( 'NONE', ( #142, #125 ) ) ;
#103 = ORIENTED_EDGE ( 'NONE', *, *, #38, .T. ) ;
#104 = DIRECTION ( 'NONE',  ( 1.000000000000000000, 0.000000000000000000, 0.000000000000000000 ) ) ;
#105 = SECURITY_CLASSIFICATION_LEVEL ( 'unclassified' ) ;
#106 = DIRECTION ( 'NONE',  ( 1.000000000000000000, 0.000000000000000000, 0.000000000000000000 ) ) ;
#107 = CALENDAR_DATE ( 2022, 7, 7 ) ;
#108 = CARTESIAN_POINT ( 'NONE',  ( 0.000000000000000000, 0.000000000000000000, 635.0000000000000000 ) ) ;
#109 = FACE_OUTER_BOUND ( 'NONE', #102, .T. ) ;
#110 = DIRECTION ( 'NONE',  ( 1.000000000000000000, 0.000000000000000000, -0.000000000000000000 ) ) ;
#111 = VECTOR ( 'NONE', #238, 1000.000000000000000 ) ;
#112 = CARTESIAN_POINT ( 'NONE',  ( 0.000000000000000000, 0.000000000000000000, 5.199999999999982414 ) ) ;
#113 = CARTESIAN_POINT ( 'NONE',  ( 3.500000000000000000, 4.286263797015736595E-16, 635.0000000000000000 ) ) ;
#114 = TOROIDAL_SURFACE ( 'NONE', #66, 3.700000000000000178, 0.2000000000000000111 ) ;
#115 = EDGE_CURVE ( 'NONE', #293, #79, #225, .T. ) ;
#116 = CIRCLE ( 'NONE', #90, 3.500000000000000000 ) ;
#117 = PERSON_AND_ORGANIZATION ( #146, #86 ) ;
#118 = EDGE_LOOP ( 'NONE', ( #6, #273, #192, #77 ) ) ;
#119 = DESIGN_CONTEXT ( 'detailed design', #20, 'design' ) ;
#120 = EDGE_LOOP ( 'NONE', ( #51, #267, #9, #124 ) ) ;
#121 = EDGE_CURVE ( 'NONE', #50, #55, #162, .T. ) ;
#122 = CC_DESIGN_APPROVAL ( #139, ( #183 ) ) ;
#123 = CARTESIAN_POINT ( 'NONE',  ( 6.000000000000000888, 7.347880794884120722E-16, 5.000000000000000000 ) ) ;
#124 = ORIENTED_EDGE ( 'NONE', *, *, #158, .F. ) ;
#125 = ORIENTED_EDGE ( 'NONE', *, *, #53, .F. ) ;
#126 = APPROVAL_DATE_TIME ( #278, #134 ) ;
#127 = CC_DESIGN_DATE_AND_TIME_ASSIGNMENT ( #153, #195, ( #219 ) ) ;
#128 = DIRECTION ( 'NONE',  ( 0.000000000000000000, 0.000000000000000000, -1.000000000000000000 ) ) ;
#129 = PERSON_AND_ORGANIZATION_ROLE ( 'design_supplier' ) ;
#130 = DIRECTION ( 'NONE',  ( 1.000000000000000000, 0.000000000000000000, -0.000000000000000000 ) ) ;
#131 = DIRECTION ( 'NONE',  ( -0.000000000000000000, -0.000000000000000000, -1.000000000000000000 ) ) ;
#132 = CARTESIAN_POINT ( 'NONE',  ( 0.000000000000000000, 0.000000000000000000, 5.000000000000000000 ) ) ;
#133 = VECTOR ( 'NONE', #15, 1000.000000000000000 ) ;
#134 = APPROVAL ( #226, 'NEURÈENÝ' ) ;
#135 = DIRECTION ( 'NONE',  ( 0.000000000000000000, 0.000000000000000000, 1.000000000000000000 ) ) ;
#136 = CARTESIAN_POINT ( 'NONE',  ( 0.000000000000000000, 0.000000000000000000, 0.000000000000000000 ) ) ;
#137 = APPROVAL_PERSON_ORGANIZATION ( #288, #134, #10 ) ;
#138 = DIRECTION ( 'NONE',  ( 0.000000000000000000, 0.000000000000000000, 1.000000000000000000 ) ) ;
#139 = APPROVAL ( #56, 'NEURÈENÝ' ) ;
#140 =( LENGTH_UNIT ( ) NAMED_UNIT ( * ) SI_UNIT ( .MILLI., .METRE. ) );
#141 = ADVANCED_BREP_SHAPE_REPRESENTATION ( 'a69e', ( #202, #218 ), #75 ) ;
#142 = ORIENTED_EDGE ( 'NONE', *, *, #280, .F. ) ;
#143 = ORIENTED_EDGE ( 'NONE', *, *, #158, .T. ) ;
#144 = AXIS2_PLACEMENT_3D ( 'NONE', #13, #198, #130 ) ;
#145 = COORDINATED_UNIVERSAL_TIME_OFFSET ( 1, 0, .AHEAD. ) ;
#146 = PERSON ( 'NEURÈENÝ', 'NEURÈENÝ', 'NEURÈENÝ', ('NEURÈENÝ'), ('NEURÈENÝ'), ('NEURÈENÝ') ) ;
#147 = PERSON_AND_ORGANIZATION ( #146, #86 ) ;
#148 = CARTESIAN_POINT ( 'NONE',  ( 0.000000000000000000, 0.000000000000000000, 5.000000000000000000 ) ) ;
#149 = CIRCLE ( 'NONE', #23, 6.000000000000000888 ) ;
#150 = DIRECTION ( 'NONE',  ( 1.000000000000000000, 0.000000000000000000, 0.000000000000000000 ) ) ;
#151 = AXIS2_PLACEMENT_3D ( 'NONE', #69, #161, #25 ) ;
#152 = AXIS2_PLACEMENT_3D ( 'NONE', #279, #282, #175 ) ;
#153 = DATE_AND_TIME ( #266, #95 ) ;
#154 = PLANE ( 'NONE',  #144 ) ;
#155 = CARTESIAN_POINT ( 'NONE',  ( -6.000000000000000888, 0.000000000000000000, 5.000000000000000000 ) ) ;
#156 = DIRECTION ( 'NONE',  ( 1.000000000000000000, 0.000000000000000000, 0.000000000000000000 ) ) ;
#157 =( NAMED_UNIT ( * ) SI_UNIT ( $, .STERADIAN. ) SOLID_ANGLE_UNIT ( ) );
#158 = EDGE_CURVE ( 'NONE', #297, #79, #26, .T. ) ;
#159 = FACE_OUTER_BOUND ( 'NONE', #120, .T. ) ;
#160 = EDGE_CURVE ( 'NONE', #50, #215, #63, .T. ) ;
#161 = DIRECTION ( 'NONE',  ( 0.000000000000000000, 0.000000000000000000, 1.000000000000000000 ) ) ;
#162 = CIRCLE ( 'NONE', #152, 6.000000000000000888 ) ;
#163 = EDGE_LOOP ( 'NONE', ( #241, #248, #165, #78 ) ) ;
#164 = EDGE_LOOP ( 'NONE', ( #80, #270 ) ) ;
#165 = ORIENTED_EDGE ( 'NONE', *, *, #47, .F. ) ;
#166 = ORIENTED_EDGE ( 'NONE', *, *, #47, .T. ) ;
#167 = EDGE_CURVE ( 'NONE', #194, #297, #246, .T. ) ;
#168 = DATE_AND_TIME ( #28, #263 ) ;
#169 = EDGE_LOOP ( 'NONE', ( #57, #103, #34, #99 ) ) ;
#170 = DATE_TIME_ROLE ( 'classification_date' ) ;
#171 = CYLINDRICAL_SURFACE ( 'NONE', #42, 3.500000000000000000 ) ;
#172 = PERSON_AND_ORGANIZATION_ROLE ( 'creator' ) ;
#173 = EDGE_CURVE ( 'NONE', #293, #194, #286, .T. ) ;
#174 = CC_DESIGN_APPROVAL ( #2, ( #219 ) ) ;
#175 = DIRECTION ( 'NONE',  ( 1.000000000000000000, 0.000000000000000000, 0.000000000000000000 ) ) ;
#176 = CC_DESIGN_PERSON_AND_ORGANIZATION_ASSIGNMENT ( #117, #129, ( #183 ) ) ;
#177 = DIRECTION ( 'NONE',  ( 0.000000000000000000, 0.000000000000000000, 1.000000000000000000 ) ) ;
#178 = FACE_OUTER_BOUND ( 'NONE', #30, .T. ) ;
#179 = CARTESIAN_POINT ( 'NONE',  ( 0.000000000000000000, 0.000000000000000000, 0.000000000000000000 ) ) ;
#180 = CC_DESIGN_PERSON_AND_ORGANIZATION_ASSIGNMENT ( #94, #182, ( #245 ) ) ;
#181 = DIRECTION ( 'NONE',  ( 1.000000000000000000, 0.000000000000000000, 0.000000000000000000 ) ) ;
#182 = PERSON_AND_ORGANIZATION_ROLE ( 'design_owner' ) ;
#183 = PRODUCT_DEFINITION_FORMATION_WITH_SPECIFIED_SOURCE ( 'LIBOVOLNÝ', '', #245, .NOT_KNOWN. ) ;
#184 = TOROIDAL_SURFACE ( 'NONE', #271, 3.700000000000000178, 0.2000000000000000111 ) ;
#185 = DIRECTION ( 'NONE',  ( 0.000000000000000000, 0.000000000000000000, 1.000000000000000000 ) ) ;
#186 = PRODUCT_RELATED_PRODUCT_CATEGORY ( 'detail', '', ( #245 ) ) ;
#187 = CARTESIAN_POINT ( 'NONE',  ( -3.700000000000000178, 4.531193156845206201E-16, 4.999999999999991118 ) ) ;
#188 = ADVANCED_FACE ( 'NONE', ( #109 ), #154, .F. ) ;
#189 = CLOSED_SHELL ( 'NONE', ( #239, #209, #65, #274, #44, #188, #232, #83, #257 ) ) ;
#190 = APPROVAL_PERSON_ORGANIZATION ( #14, #2, #254 ) ;
#191 = AXIS2_PLACEMENT_3D ( 'NONE', #132, #281, #106 ) ;
#192 = ORIENTED_EDGE ( 'NONE', *, *, #160, .T. ) ;
#193 = CC_DESIGN_PERSON_AND_ORGANIZATION_ASSIGNMENT ( #299, #54, ( #219 ) ) ;
#194 = VERTEX_POINT ( 'NONE', #298 ) ;
#195 = DATE_TIME_ROLE ( 'creation_date' ) ;
#196 = ORIENTED_EDGE ( 'NONE', *, *, #93, .T. ) ;
#197 = CALENDAR_DATE ( 2022, 7, 7 ) ;
#198 = DIRECTION ( 'NONE',  ( 0.000000000000000000, 0.000000000000000000, 1.000000000000000000 ) ) ;
#199 = PERSON_AND_ORGANIZATION_ROLE ( 'classification_officer' ) ;
#200 = CARTESIAN_POINT ( 'NONE',  ( 0.000000000000000000, 0.000000000000000000, 5.000000000000000000 ) ) ;
#201 = DIRECTION ( 'NONE',  ( 0.000000000000000000, 0.000000000000000000, 1.000000000000000000 ) ) ;
#202 = MANIFOLD_SOLID_BREP ( 'Zaoblit1', #189 ) ;
#203 = FACE_OUTER_BOUND ( 'NONE', #33, .T. ) ;
#204 = CARTESIAN_POINT ( 'NONE',  ( 3.500000000000000000, 4.286263797015736595E-16, 635.0000000000000000 ) ) ;
#205 = DIRECTION ( 'NONE',  ( 1.000000000000000000, 0.000000000000000000, 0.000000000000000000 ) ) ;
#206 = VECTOR ( 'NONE', #131, 1000.000000000000000 ) ;
#207 = CIRCLE ( 'NONE', #296, 3.500000000000000000 ) ;
#208 = DIRECTION ( 'NONE',  ( 0.000000000000000000, 0.000000000000000000, 1.000000000000000000 ) ) ;
#209 = ADVANCED_FACE ( 'NONE', ( #203 ), #171, .T. ) ;
#210 = CC_DESIGN_DATE_AND_TIME_ASSIGNMENT ( #240, #170, ( #305 ) ) ;
#211 = CARTESIAN_POINT ( 'NONE',  ( 3.500000000000000000, 4.286263797015736595E-16, 5.199999999999982414 ) ) ;
#212 = AXIS2_PLACEMENT_3D ( 'NONE', #230, #228, #224 ) ;
#213 = CARTESIAN_POINT ( 'NONE',  ( 0.000000000000000000, 0.000000000000000000, 5.199999999999982414 ) ) ;
#214 = CC_DESIGN_PERSON_AND_ORGANIZATION_ASSIGNMENT ( #37, #172, ( #183 ) ) ;
#215 = VERTEX_POINT ( 'NONE', #85 ) ;
#216 = ORIENTED_EDGE ( 'NONE', *, *, #173, .T. ) ;
#217 = AXIS2_PLACEMENT_3D ( 'NONE', #148, #201, #110 ) ;
#218 = AXIS2_PLACEMENT_3D ( 'NONE', #136, #208, #1 ) ;
#219 = PRODUCT_DEFINITION ( 'NEZNÁMÝ', '', #183, #119 ) ;
#220 = COORDINATED_UNIVERSAL_TIME_OFFSET ( 1, 0, .AHEAD. ) ;
#221 = VERTEX_POINT ( 'NONE', #17 ) ;
#222 = ORIENTED_EDGE ( 'NONE', *, *, #268, .F. ) ;
#223 = SHAPE_DEFINITION_REPRESENTATION ( #301, #141 ) ;
#224 = DIRECTION ( 'NONE',  ( 1.000000000000000000, 0.000000000000000000, 0.000000000000000000 ) ) ;
#225 = CIRCLE ( 'NONE', #8, 0.1999999999999996503 ) ;
#226 = APPROVAL_STATUS ( 'not_yet_approved' ) ;
#227 = CARTESIAN_POINT ( 'NONE',  ( 3.700000000000000178, 0.000000000000000000, 5.199999999999982414 ) ) ;
#228 = DIRECTION ( 'NONE',  ( 0.000000000000000000, 0.000000000000000000, 1.000000000000000000 ) ) ;
#229 = AXIS2_PLACEMENT_3D ( 'NONE', #4, #138, #306 ) ;
#230 = CARTESIAN_POINT ( 'NONE',  ( 0.000000000000000000, 0.000000000000000000, 5.199999999999982414 ) ) ;
#231 = AXIS2_PLACEMENT_3D ( 'NONE', #97, #264, #72 ) ;
#232 = ADVANCED_FACE ( 'NONE', ( #43 ), #261, .T. ) ;
#233 = CARTESIAN_POINT ( 'NONE',  ( 0.000000000000000000, 0.000000000000000000, 5.000000000000000000 ) ) ;
#234 = CYLINDRICAL_SURFACE ( 'NONE', #290, 6.000000000000000888 ) ;
#235 = AXIS2_PLACEMENT_3D ( 'NONE', #108, #87, #250 ) ;
#236 = CARTESIAN_POINT ( 'NONE',  ( 6.000000000000000888, 7.347880794884120722E-16, 0.000000000000000000 ) ) ;
#237 = LINE ( 'NONE', #49, #111 ) ;
#238 = DIRECTION ( 'NONE',  ( -0.000000000000000000, -0.000000000000000000, -1.000000000000000000 ) ) ;
#239 = ADVANCED_FACE ( 'NONE', ( #96 ), #184, .F. ) ;
#240 = DATE_AND_TIME ( #107, #3 ) ;
#241 = ORIENTED_EDGE ( 'NONE', *, *, #93, .F. ) ;
#242 = ORIENTED_EDGE ( 'NONE', *, *, #101, .T. ) ;
#243 = ORIENTED_EDGE ( 'NONE', *, *, #101, .F. ) ;
#244 = EDGE_CURVE ( 'NONE', #221, #295, #116, .T. ) ;
#245 = PRODUCT ( 'a69e', 'a69e', '', ( #262 ) ) ;
#246 = CIRCLE ( 'NONE', #259, 0.2000000000000000944 ) ;
#247 = ORIENTED_EDGE ( 'NONE', *, *, #268, .T. ) ;
#248 = ORIENTED_EDGE ( 'NONE', *, *, #167, .T. ) ;
#249 = COORDINATED_UNIVERSAL_TIME_OFFSET ( 1, 0, .AHEAD. ) ;
#250 = DIRECTION ( 'NONE',  ( 1.000000000000000000, 0.000000000000000000, -0.000000000000000000 ) ) ;
#251 = COORDINATED_UNIVERSAL_TIME_OFFSET ( 1, 0, .AHEAD. ) ;
#252 = APPROVAL_PERSON_ORGANIZATION ( #147, #139, #275 ) ;
#253 = CARTESIAN_POINT ( 'NONE',  ( 0.000000000000000000, 0.000000000000000000, 5.199999999999982414 ) ) ;
#254 = APPROVAL_ROLE ( '' ) ;
#255 = CARTESIAN_POINT ( 'NONE',  ( 6.000000000000000888, 7.347880794884120722E-16, 5.000000000000000000 ) ) ;
#256 = DIRECTION ( 'NONE',  ( 1.224646799147353207E-16, 1.000000000000000000, -0.000000000000000000 ) ) ;
#257 = ADVANCED_FACE ( 'NONE', ( #159 ), #114, .F. ) ;
#258 = DIRECTION ( 'NONE',  ( -1.000000000000000000, 1.224646799147350742E-16, 0.000000000000000000 ) ) ;
#259 = AXIS2_PLACEMENT_3D ( 'NONE', #303, #256, #258 ) ;
#260 = DIRECTION ( 'NONE',  ( 1.000000000000000000, 0.000000000000000000, 0.000000000000000000 ) ) ;
#261 = CYLINDRICAL_SURFACE ( 'NONE', #231, 3.500000000000000000 ) ;
#262 = MECHANICAL_CONTEXT ( 'NONE', #294, 'mechanical' ) ;
#263 = LOCAL_TIME ( 12, 6, 20.00000000000000000, #84 ) ;
#264 = DIRECTION ( 'NONE',  ( -0.000000000000000000, -0.000000000000000000, -1.000000000000000000 ) ) ;
#265 = DIRECTION ( 'NONE',  ( 0.000000000000000000, 0.000000000000000000, 1.000000000000000000 ) ) ;
#266 = CALENDAR_DATE ( 2022, 7, 7 ) ;
#267 = ORIENTED_EDGE ( 'NONE', *, *, #173, .F. ) ;
#268 = EDGE_CURVE ( 'NONE', #295, #221, #207, .T. ) ;
#269 = ORIENTED_EDGE ( 'NONE', *, *, #244, .F. ) ;
#270 = ORIENTED_EDGE ( 'NONE', *, *, #287, .T. ) ;
#271 = AXIS2_PLACEMENT_3D ( 'NONE', #213, #70, #205 ) ;
#272 = APPLICATION_PROTOCOL_DEFINITION ( 'international standard', 'config_control_design', 1994, #20 ) ;
#273 = ORIENTED_EDGE ( 'NONE', *, *, #121, .F. ) ;
#274 = ADVANCED_FACE ( 'NONE', ( #22 ), #234, .T. ) ;
#275 = APPROVAL_ROLE ( '' ) ;
#276 = CYLINDRICAL_SURFACE ( 'NONE', #277, 6.000000000000000888 ) ;
#277 = AXIS2_PLACEMENT_3D ( 'NONE', #200, #21, #304 ) ;
#278 = DATE_AND_TIME ( #58, #60 ) ;
#279 = CARTESIAN_POINT ( 'NONE',  ( 0.000000000000000000, 0.000000000000000000, 5.000000000000000000 ) ) ;
#280 = EDGE_CURVE ( 'NONE', #215, #291, #7, .T. ) ;
#281 = DIRECTION ( 'NONE',  ( -0.000000000000000000, -0.000000000000000000, -1.000000000000000000 ) ) ;
#282 = DIRECTION ( 'NONE',  ( 0.000000000000000000, 0.000000000000000000, 1.000000000000000000 ) ) ;
#283 = CARTESIAN_POINT ( 'NONE',  ( -6.000000000000000888, 0.000000000000000000, 5.000000000000000000 ) ) ;
#284 = DIRECTION ( 'NONE',  ( -0.000000000000000000, -0.000000000000000000, -1.000000000000000000 ) ) ;
#285 = CARTESIAN_POINT ( 'NONE',  ( 0.000000000000000000, 0.000000000000000000, 5.000000000000000000 ) ) ;
#286 = CIRCLE ( 'NONE', #212, 3.500000000000000000 ) ;
#287 = EDGE_CURVE ( 'NONE', #55, #50, #24, .T. ) ;
#288 = PERSON_AND_ORGANIZATION ( #146, #86 ) ;
#289 = AXIS2_PLACEMENT_3D ( 'NONE', #233, #89, #150 ) ;
#290 = AXIS2_PLACEMENT_3D ( 'NONE', #285, #284, #46 ) ;
#291 = VERTEX_POINT ( 'NONE', #236 ) ;
#292 = CC_DESIGN_PERSON_AND_ORGANIZATION_ASSIGNMENT ( #73, #199, ( #305 ) ) ;
#293 = VERTEX_POINT ( 'NONE', #211 ) ;
#294 = APPLICATION_CONTEXT ( 'configuration controlled 3d designs of mechanical parts and assemblies' ) ;
#295 = VERTEX_POINT ( 'NONE', #113 ) ;
#296 = AXIS2_PLACEMENT_3D ( 'NONE', #27, #185, #181 ) ;
#297 = VERTEX_POINT ( 'NONE', #187 ) ;
#298 = CARTESIAN_POINT ( 'NONE',  ( -3.500000000000000000, 0.000000000000000000, 5.199999999999982414 ) ) ;
#299 = PERSON_AND_ORGANIZATION ( #146, #86 ) ;
#300 = DIRECTION ( 'NONE',  ( -0.000000000000000000, -0.000000000000000000, -1.000000000000000000 ) ) ;
#301 = PRODUCT_DEFINITION_SHAPE ( 'NONE', 'NONE',  #219 ) ;
#302 = FACE_OUTER_BOUND ( 'NONE', #164, .T. ) ;
#303 = CARTESIAN_POINT ( 'NONE',  ( -3.700000000000000178, 4.531193156845206201E-16, 5.199999999999982414 ) ) ;
#304 = DIRECTION ( 'NONE',  ( -1.000000000000000000, 0.000000000000000000, 0.000000000000000000 ) ) ;
#305 = SECURITY_CLASSIFICATION ( '', '', #105 ) ;
#306 = DIRECTION ( 'NONE',  ( 1.000000000000000000, 0.000000000000000000, 0.000000000000000000 ) ) ;
#307 = EDGE_CURVE ( 'NONE', #221, #194, #237, .T. ) ;
ENDSEC;
END-ISO-10303-21;
