ISO-10303-21;
HEADER;
FILE_DESCRIPTION (( 'STEP AP203' ),
    '1' );
FILE_NAME ('9c02.STEP',
    '2022-07-07T09:36:34',
    ( '' ),
    ( '' ),
    'SwSTEP 2.0',
    'SolidWorks 2019',
    '' );
FILE_SCHEMA (( 'CONFIG_CONTROL_DESIGN' ));
ENDSEC;

DATA;
#1 = ORIENTED_EDGE ( 'NONE', *, *, #52, .T. ) ;
#2 = APPROVAL_ROLE ( '' ) ;
#3 = VERTEX_POINT ( 'NONE', #299 ) ;
#4 = CC_DESIGN_PERSON_AND_ORGANIZATION_ASSIGNMENT ( #145, #60, ( #191 ) ) ;
#5 = EDGE_LOOP ( 'NONE', ( #302, #251 ) ) ;
#6 = DIRECTION ( 'NONE',  ( 0.000000000000000000, 0.000000000000000000, 1.000000000000000000 ) ) ;
#7 = AXIS2_PLACEMENT_3D ( 'NONE', #92, #138, #259 ) ;
#8 = CIRCLE ( 'NONE', #261, 9.199999999999999289 ) ;
#9 = DIRECTION ( 'NONE',  ( 0.000000000000000000, 0.000000000000000000, 1.000000000000000000 ) ) ;
#10 = CARTESIAN_POINT ( 'NONE',  ( 0.000000000000000000, 0.000000000000000000, 7.200000000000011724 ) ) ;
#11 = ORIENTED_EDGE ( 'NONE', *, *, #257, .T. ) ;
#12 = AXIS2_PLACEMENT_3D ( 'NONE', #150, #64, #38 ) ;
#13 = ORIENTED_EDGE ( 'NONE', *, *, #285, .T. ) ;
#14 = EDGE_CURVE ( 'NONE', #206, #156, #94, .T. ) ;
#15 = FACE_BOUND ( 'NONE', #129, .T. ) ;
#16 = DIRECTION ( 'NONE',  ( 0.000000000000000000, 0.000000000000000000, 1.000000000000000000 ) ) ;
#17 = APPROVAL_PERSON_ORGANIZATION ( #290, #178, #2 ) ;
#18 = FACE_OUTER_BOUND ( 'NONE', #55, .T. ) ;
#19 = ORIENTED_EDGE ( 'NONE', *, *, #43, .F. ) ;
#20 = FACE_OUTER_BOUND ( 'NONE', #293, .T. ) ;
#21 = EDGE_CURVE ( 'NONE', #3, #166, #176, .T. ) ;
#22 = EDGE_LOOP ( 'NONE', ( #95, #236, #175, #296 ) ) ;
#23 = DIRECTION ( 'NONE',  ( -0.000000000000000000, -0.000000000000000000, -1.000000000000000000 ) ) ;
#24 = CC_DESIGN_APPROVAL ( #178, ( #114 ) ) ;
#25 = AXIS2_PLACEMENT_3D ( 'NONE', #184, #231, #278 ) ;
#26 = PERSON_AND_ORGANIZATION ( #27, #204 ) ;
#27 = PERSON ( 'NEURÈENÝ', 'NEURÈENÝ', 'NEURÈENÝ', ('NEURÈENÝ'), ('NEURÈENÝ'), ('NEURÈENÝ') ) ;
#28 = CALENDAR_DATE ( 2022, 7, 7 ) ;
#29 = ORIENTED_EDGE ( 'NONE', *, *, #257, .F. ) ;
#30 = DATE_AND_TIME ( #28, #57 ) ;
#31 = VECTOR ( 'NONE', #283, 1000.000000000000000 ) ;
#32 = VERTEX_POINT ( 'NONE', #275 ) ;
#33 = APPROVAL_STATUS ( 'not_yet_approved' ) ;
#34 = EDGE_CURVE ( 'NONE', #304, #32, #81, .T. ) ;
#35 = ORIENTED_EDGE ( 'NONE', *, *, #14, .T. ) ;
#36 = EDGE_CURVE ( 'NONE', #32, #304, #282, .T. ) ;
#37 = DIRECTION ( 'NONE',  ( 1.000000000000000000, 0.000000000000000000, 0.000000000000000000 ) ) ;
#38 = DIRECTION ( 'NONE',  ( 1.000000000000000000, 0.000000000000000000, -0.000000000000000000 ) ) ;
#39 = AXIS2_PLACEMENT_3D ( 'NONE', #71, #254, #141 ) ;
#40 = CC_DESIGN_PERSON_AND_ORGANIZATION_ASSIGNMENT ( #26, #193, ( #246 ) ) ;
#41 = DIRECTION ( 'NONE',  ( 0.000000000000000000, 0.000000000000000000, 1.000000000000000000 ) ) ;
#42 = DIRECTION ( 'NONE',  ( -1.000000000000000000, 0.000000000000000000, 0.000000000000000000 ) ) ;
#43 = EDGE_CURVE ( 'NONE', #32, #205, #183, .T. ) ;
#44 = ORIENTED_EDGE ( 'NONE', *, *, #52, .F. ) ;
#45 = CC_DESIGN_SECURITY_CLASSIFICATION ( #246, ( #191 ) ) ;
#46 = CYLINDRICAL_SURFACE ( 'NONE', #7, 12.00000000000000178 ) ;
#47 = CARTESIAN_POINT ( 'NONE',  ( -12.00000000000000178, 0.000000000000000000, 7.000000000000000000 ) ) ;
#48 = CYLINDRICAL_SURFACE ( 'NONE', #260, 9.000000000000000000 ) ;
#49 = EDGE_LOOP ( 'NONE', ( #35, #104 ) ) ;
#50 = CIRCLE ( 'NONE', #186, 9.199999999999999289 ) ;
#51 = DIRECTION ( 'NONE',  ( 1.000000000000000000, 0.000000000000000000, 0.000000000000000000 ) ) ;
#52 = EDGE_CURVE ( 'NONE', #3, #205, #220, .T. ) ;
#53 = ORIENTED_EDGE ( 'NONE', *, *, #87, .T. ) ;
#54 = FACE_OUTER_BOUND ( 'NONE', #130, .T. ) ;
#55 = EDGE_LOOP ( 'NONE', ( #262, #153, #264, #192 ) ) ;
#56 = COORDINATED_UNIVERSAL_TIME_OFFSET ( 1, 0, .AHEAD. ) ;
#57 = LOCAL_TIME ( 11, 36, 34.00000000000000000, #288 ) ;
#58 = DATE_TIME_ROLE ( 'creation_date' ) ;
#59 = APPROVAL_ROLE ( '' ) ;
#60 = PERSON_AND_ORGANIZATION_ROLE ( 'creator' ) ;
#61 = CARTESIAN_POINT ( 'NONE',  ( 0.000000000000000000, 0.000000000000000000, 257.0000000000000000 ) ) ;
#62 = DIRECTION ( 'NONE',  ( -1.000000000000000000, 1.224646799147353207E-16, 0.000000000000000000 ) ) ;
#63 = PRODUCT ( '9c02', '9c02', '', ( #78 ) ) ;
#64 = DIRECTION ( 'NONE',  ( 0.000000000000000000, 0.000000000000000000, 1.000000000000000000 ) ) ;
#65 = CIRCLE ( 'NONE', #305, 12.00000000000000178 ) ;
#66 = ADVANCED_FACE ( 'NONE', ( #135 ), #265, .F. ) ;
#67 = CYLINDRICAL_SURFACE ( 'NONE', #70, 12.00000000000000178 ) ;
#68 = DIRECTION ( 'NONE',  ( -0.000000000000000000, -0.000000000000000000, -1.000000000000000000 ) ) ;
#69 = CARTESIAN_POINT ( 'NONE',  ( 9.000000000000000000, 1.102182119232617714E-15, 7.200000000000011724 ) ) ;
#70 = AXIS2_PLACEMENT_3D ( 'NONE', #155, #250, #42 ) ;
#71 = CARTESIAN_POINT ( 'NONE',  ( 0.000000000000000000, 0.000000000000000000, 257.0000000000000000 ) ) ;
#72 = CARTESIAN_POINT ( 'NONE',  ( 12.00000000000000178, 1.469576158976824144E-15, 7.000000000000000000 ) ) ;
#73 = CARTESIAN_POINT ( 'NONE',  ( 0.000000000000000000, 0.000000000000000000, 257.0000000000000000 ) ) ;
#74 = AXIS2_PLACEMENT_3D ( 'NONE', #93, #255, #164 ) ;
#75 = ORIENTED_EDGE ( 'NONE', *, *, #21, .T. ) ;
#76 = CALENDAR_DATE ( 2022, 7, 7 ) ;
#77 = TOROIDAL_SURFACE ( 'NONE', #165, 9.199999999999999289, 0.2000000000000000111 ) ;
#78 = MECHANICAL_CONTEXT ( 'NONE', #249, 'mechanical' ) ;
#79 = EDGE_CURVE ( 'NONE', #205, #3, #147, .T. ) ;
#80 = DATE_AND_TIME ( #103, #196 ) ;
#81 = CIRCLE ( 'NONE', #113, 9.000000000000000000 ) ;
#82 = CC_DESIGN_APPROVAL ( #91, ( #246 ) ) ;
#83 = FACE_OUTER_BOUND ( 'NONE', #5, .T. ) ;
#84 = DIRECTION ( 'NONE',  ( 1.000000000000000000, 0.000000000000000000, 0.000000000000000000 ) ) ;
#85 = DIRECTION ( 'NONE',  ( 1.000000000000000000, 0.000000000000000000, -0.000000000000000000 ) ) ;
#86 = DIRECTION ( 'NONE',  ( 0.000000000000000000, 0.000000000000000000, 1.000000000000000000 ) ) ;
#87 = EDGE_CURVE ( 'NONE', #256, #143, #152, .T. ) ;
#88 = DIRECTION ( 'NONE',  ( -0.000000000000000000, -0.000000000000000000, -1.000000000000000000 ) ) ;
#89 =( LENGTH_UNIT ( ) NAMED_UNIT ( * ) SI_UNIT ( .MILLI., .METRE. ) );
#90 =( NAMED_UNIT ( * ) PLANE_ANGLE_UNIT ( ) SI_UNIT ( $, .RADIAN. ) );
#91 = APPROVAL ( #174, 'NEURÈENÝ' ) ;
#92 = CARTESIAN_POINT ( 'NONE',  ( 0.000000000000000000, 0.000000000000000000, 7.000000000000000000 ) ) ;
#93 = CARTESIAN_POINT ( 'NONE',  ( 9.199999999999999289, 0.000000000000000000, 7.200000000000011724 ) ) ;
#94 = CIRCLE ( 'NONE', #269, 12.00000000000000178 ) ;
#95 = ORIENTED_EDGE ( 'NONE', *, *, #21, .F. ) ;
#96 = APPROVAL_ROLE ( '' ) ;
#97 = ADVANCED_FACE ( 'NONE', ( #83 ), #272, .T. ) ;
#98 = SHAPE_DEFINITION_REPRESENTATION ( #287, #237 ) ;
#99 = PERSON_AND_ORGANIZATION ( #27, #204 ) ;
#100 = CC_DESIGN_APPROVAL ( #202, ( #191 ) ) ;
#101 = DIRECTION ( 'NONE',  ( 0.000000000000000000, 0.000000000000000000, 1.000000000000000000 ) ) ;
#102 = ORIENTED_EDGE ( 'NONE', *, *, #87, .F. ) ;
#103 = CALENDAR_DATE ( 2022, 7, 7 ) ;
#104 = ORIENTED_EDGE ( 'NONE', *, *, #276, .T. ) ;
#105 = ORIENTED_EDGE ( 'NONE', *, *, #195, .T. ) ;
#106 = DIRECTION ( 'NONE',  ( 0.000000000000000000, 0.000000000000000000, 1.000000000000000000 ) ) ;
#107 = VECTOR ( 'NONE', #121, 1000.000000000000000 ) ;
#108 = DESIGN_CONTEXT ( 'detailed design', #268, 'design' ) ;
#109 = FACE_OUTER_BOUND ( 'NONE', #211, .T. ) ;
#110 = DIRECTION ( 'NONE',  ( 1.000000000000000000, 0.000000000000000000, 0.000000000000000000 ) ) ;
#111 = LOCAL_TIME ( 11, 36, 34.00000000000000000, #306 ) ;
#112 = DIRECTION ( 'NONE',  ( 1.000000000000000000, 0.000000000000000000, 0.000000000000000000 ) ) ;
#113 = AXIS2_PLACEMENT_3D ( 'NONE', #225, #180, #248 ) ;
#114 = PRODUCT_DEFINITION ( 'NEZNÁMÝ', '', #191, #108 ) ;
#115 = DIRECTION ( 'NONE',  ( 1.224646799147353207E-16, 1.000000000000000000, -0.000000000000000000 ) ) ;
#116 = CC_DESIGN_DATE_AND_TIME_ASSIGNMENT ( #146, #242, ( #246 ) ) ;
#117 = CARTESIAN_POINT ( 'NONE',  ( 0.000000000000000000, 0.000000000000000000, 0.000000000000000000 ) ) ;
#118 = AXIS2_PLACEMENT_3D ( 'NONE', #223, #41, #85 ) ;
#119 = CARTESIAN_POINT ( 'NONE',  ( 12.00000000000000178, 1.469576158976824144E-15, 7.000000000000000000 ) ) ;
#120 = ORIENTED_EDGE ( 'NONE', *, *, #34, .F. ) ;
#121 = DIRECTION ( 'NONE',  ( -0.000000000000000000, -0.000000000000000000, -1.000000000000000000 ) ) ;
#122 = DIRECTION ( 'NONE',  ( 1.000000000000000000, 0.000000000000000000, 0.000000000000000000 ) ) ;
#123 = CC_DESIGN_PERSON_AND_ORGANIZATION_ASSIGNMENT ( #126, #172, ( #114 ) ) ;
#124 = CIRCLE ( 'NONE', #74, 0.1999999999999996503 ) ;
#125 = APPROVAL_STATUS ( 'not_yet_approved' ) ;
#126 = PERSON_AND_ORGANIZATION ( #27, #204 ) ;
#127 = APPLICATION_PROTOCOL_DEFINITION ( 'international standard', 'config_control_design', 1994, #249 ) ;
#128 = APPROVAL_DATE_TIME ( #197, #202 ) ;
#129 = EDGE_LOOP ( 'NONE', ( #13, #227 ) ) ;
#130 = EDGE_LOOP ( 'NONE', ( #19, #120, #105, #1 ) ) ;
#131 = ADVANCED_FACE ( 'NONE', ( #109 ), #203, .F. ) ;
#132 = AXIS2_PLACEMENT_3D ( 'NONE', #10, #106, #200 ) ;
#133 = ORIENTED_EDGE ( 'NONE', *, *, #14, .F. ) ;
#134 = UNCERTAINTY_MEASURE_WITH_UNIT (LENGTH_MEASURE( 1.000000000000000082E-05 ), #89, 'distance_accuracy_value', 'NONE');
#135 = FACE_OUTER_BOUND ( 'NONE', #22, .T. ) ;
#136 = CARTESIAN_POINT ( 'NONE',  ( 12.00000000000000178, 1.469576158976824144E-15, 0.000000000000000000 ) ) ;
#137 = EDGE_LOOP ( 'NONE', ( #224, #232, #11, #234 ) ) ;
#138 = DIRECTION ( 'NONE',  ( -0.000000000000000000, -0.000000000000000000, -1.000000000000000000 ) ) ;
#139 = DIRECTION ( 'NONE',  ( -0.000000000000000000, -0.000000000000000000, -1.000000000000000000 ) ) ;
#140 = ADVANCED_FACE ( 'NONE', ( #182 ), #67, .T. ) ;
#141 = DIRECTION ( 'NONE',  ( -1.000000000000000000, 0.000000000000000000, 0.000000000000000000 ) ) ;
#142 = PLANE ( 'NONE',  #25 ) ;
#143 = VERTEX_POINT ( 'NONE', #136 ) ;
#144 = PERSON_AND_ORGANIZATION ( #27, #204 ) ;
#145 = PERSON_AND_ORGANIZATION ( #27, #204 ) ;
#146 = DATE_AND_TIME ( #148, #111 ) ;
#147 = CIRCLE ( 'NONE', #171, 9.000000000000000000 ) ;
#148 = CALENDAR_DATE ( 2022, 7, 7 ) ;
#149 = CARTESIAN_POINT ( 'NONE',  ( 9.000000000000000000, 1.102182119232617714E-15, 257.0000000000000000 ) ) ;
#150 = CARTESIAN_POINT ( 'NONE',  ( 0.000000000000000000, 0.000000000000000000, 257.0000000000000000 ) ) ;
#151 = AXIS2_PLACEMENT_3D ( 'NONE', #241, #101, #240 ) ;
#152 = CIRCLE ( 'NONE', #294, 12.00000000000000178 ) ;
#153 = ORIENTED_EDGE ( 'NONE', *, *, #43, .T. ) ;
#154 = ADVANCED_FACE ( 'NONE', ( #18 ), #48, .T. ) ;
#155 = CARTESIAN_POINT ( 'NONE',  ( 0.000000000000000000, 0.000000000000000000, 7.000000000000000000 ) ) ;
#156 = VERTEX_POINT ( 'NONE', #119 ) ;
#157 = ADVANCED_FACE ( 'NONE', ( #15, #235 ), #142, .T. ) ;
#158 = VECTOR ( 'NONE', #139, 1000.000000000000000 ) ;
#159 = DIRECTION ( 'NONE',  ( -1.000000000000000000, 0.000000000000000000, 0.000000000000000000 ) ) ;
#160 = AXIS2_PLACEMENT_3D ( 'NONE', #61, #86, #84 ) ;
#161 = EDGE_CURVE ( 'NONE', #166, #198, #8, .T. ) ;
#162 = CARTESIAN_POINT ( 'NONE',  ( -9.000000000000000000, 0.000000000000000000, 257.0000000000000000 ) ) ;
#163 = PRODUCT_RELATED_PRODUCT_CATEGORY ( 'detail', '', ( #63 ) ) ;
#164 = DIRECTION ( 'NONE',  ( 0.000000000000000000, 0.000000000000000000, -1.000000000000000000 ) ) ;
#165 = AXIS2_PLACEMENT_3D ( 'NONE', #228, #209, #168 ) ;
#166 = VERTEX_POINT ( 'NONE', #188 ) ;
#167 = CC_DESIGN_PERSON_AND_ORGANIZATION_ASSIGNMENT ( #99, #221, ( #63 ) ) ;
#168 = DIRECTION ( 'NONE',  ( 1.000000000000000000, 0.000000000000000000, 0.000000000000000000 ) ) ;
#169 = DATE_AND_TIME ( #76, #274 ) ;
#170 =( NAMED_UNIT ( * ) SI_UNIT ( $, .STERADIAN. ) SOLID_ANGLE_UNIT ( ) );
#171 = AXIS2_PLACEMENT_3D ( 'NONE', #297, #6, #295 ) ;
#172 = PERSON_AND_ORGANIZATION_ROLE ( 'creator' ) ;
#173 = ORIENTED_EDGE ( 'NONE', *, *, #285, .F. ) ;
#174 = APPROVAL_STATUS ( 'not_yet_approved' ) ;
#175 = ORIENTED_EDGE ( 'NONE', *, *, #222, .T. ) ;
#176 = CIRCLE ( 'NONE', #213, 0.2000000000000005107 ) ;
#177 = LOCAL_TIME ( 11, 36, 34.00000000000000000, #56 ) ;
#178 = APPROVAL ( #33, 'NEURÈENÝ' ) ;
#179 = DIRECTION ( 'NONE',  ( 0.000000000000000000, 0.000000000000000000, 1.000000000000000000 ) ) ;
#180 = DIRECTION ( 'NONE',  ( 0.000000000000000000, 0.000000000000000000, 1.000000000000000000 ) ) ;
#181 = CARTESIAN_POINT ( 'NONE',  ( 0.000000000000000000, 0.000000000000000000, 7.200000000000011724 ) ) ;
#182 = FACE_OUTER_BOUND ( 'NONE', #298, .T. ) ;
#183 = LINE ( 'NONE', #149, #252 ) ;
#184 = CARTESIAN_POINT ( 'NONE',  ( 0.000000000000000000, 0.000000000000000000, 7.000000000000000000 ) ) ;
#185 = EDGE_CURVE ( 'NONE', #156, #143, #233, .T. ) ;
#186 = AXIS2_PLACEMENT_3D ( 'NONE', #263, #23, #122 ) ;
#187 = LINE ( 'NONE', #162, #158 ) ;
#188 = CARTESIAN_POINT ( 'NONE',  ( -9.199999999999999289, 1.126675055215564822E-15, 7.000000000000006217 ) ) ;
#189 = CARTESIAN_POINT ( 'NONE',  ( 0.000000000000000000, 0.000000000000000000, 7.000000000000000000 ) ) ;
#190 = DIRECTION ( 'NONE',  ( -0.000000000000000000, -0.000000000000000000, -1.000000000000000000 ) ) ;
#191 = PRODUCT_DEFINITION_FORMATION_WITH_SPECIFIED_SOURCE ( 'LIBOVOLNÝ', '', #63, .NOT_KNOWN. ) ;
#192 = ORIENTED_EDGE ( 'NONE', *, *, #195, .F. ) ;
#193 = PERSON_AND_ORGANIZATION_ROLE ( 'classification_officer' ) ;
#194 = APPROVAL_DATE_TIME ( #30, #178 ) ;
#195 = EDGE_CURVE ( 'NONE', #304, #3, #187, .T. ) ;
#196 = LOCAL_TIME ( 11, 36, 34.00000000000000000, #266 ) ;
#197 = DATE_AND_TIME ( #238, #177 ) ;
#198 = VERTEX_POINT ( 'NONE', #303 ) ;
#199 = ADVANCED_FACE ( 'NONE', ( #54 ), #207, .T. ) ;
#200 = DIRECTION ( 'NONE',  ( 1.000000000000000000, 0.000000000000000000, 0.000000000000000000 ) ) ;
#201 = ORIENTED_EDGE ( 'NONE', *, *, #239, .T. ) ;
#202 = APPROVAL ( #125, 'NEURÈENÝ' ) ;
#203 = PLANE ( 'NONE',  #118 ) ;
#204 = ORGANIZATION ( 'NEURÈENÝ', 'NEURÈENÝ', '' ) ;
#205 = VERTEX_POINT ( 'NONE', #69 ) ;
#206 = VERTEX_POINT ( 'NONE', #47 ) ;
#207 = CYLINDRICAL_SURFACE ( 'NONE', #39, 9.000000000000000000 ) ;
#208 = AXIS2_PLACEMENT_3D ( 'NONE', #189, #280, #51 ) ;
#209 = DIRECTION ( 'NONE',  ( 0.000000000000000000, 0.000000000000000000, 1.000000000000000000 ) ) ;
#210 = CARTESIAN_POINT ( 'NONE',  ( -12.00000000000000178, 0.000000000000000000, 7.000000000000000000 ) ) ;
#211 = EDGE_LOOP ( 'NONE', ( #102, #29 ) ) ;
#212 = CARTESIAN_POINT ( 'NONE',  ( 0.000000000000000000, 0.000000000000000000, 7.000000000000000000 ) ) ;
#213 = AXIS2_PLACEMENT_3D ( 'NONE', #271, #115, #62 ) ;
#214 = CARTESIAN_POINT ( 'NONE',  ( -9.000000000000000000, 0.000000000000000000, 257.0000000000000000 ) ) ;
#215 = CIRCLE ( 'NONE', #208, 12.00000000000000178 ) ;
#216 = APPLICATION_PROTOCOL_DEFINITION ( 'international standard', 'config_control_design', 1994, #268 ) ;
#217 = SECURITY_CLASSIFICATION_LEVEL ( 'unclassified' ) ;
#218 = CC_DESIGN_DATE_AND_TIME_ASSIGNMENT ( #80, #58, ( #114 ) ) ;
#219 =( GEOMETRIC_REPRESENTATION_CONTEXT ( 3 ) GLOBAL_UNCERTAINTY_ASSIGNED_CONTEXT ( ( #134 ) ) GLOBAL_UNIT_ASSIGNED_CONTEXT ( ( #89, #90, #170 ) ) REPRESENTATION_CONTEXT ( 'NONE', 'WORKASPACE' ) );
#220 = CIRCLE ( 'NONE', #247, 9.000000000000000000 ) ;
#221 = PERSON_AND_ORGANIZATION_ROLE ( 'design_owner' ) ;
#222 = EDGE_CURVE ( 'NONE', #205, #198, #124, .T. ) ;
#223 = CARTESIAN_POINT ( 'NONE',  ( 0.000000000000000000, 0.000000000000000000, 0.000000000000000000 ) ) ;
#224 = ORIENTED_EDGE ( 'NONE', *, *, #276, .F. ) ;
#225 = CARTESIAN_POINT ( 'NONE',  ( 0.000000000000000000, 0.000000000000000000, 257.0000000000000000 ) ) ;
#226 = CLOSED_SHELL ( 'NONE', ( #284, #154, #258, #140, #157, #131, #199, #97, #66 ) ) ;
#227 = ORIENTED_EDGE ( 'NONE', *, *, #161, .T. ) ;
#228 = CARTESIAN_POINT ( 'NONE',  ( 0.000000000000000000, 0.000000000000000000, 7.200000000000011724 ) ) ;
#229 = CARTESIAN_POINT ( 'NONE',  ( -12.00000000000000178, 0.000000000000000000, 0.000000000000000000 ) ) ;
#230 = APPROVAL_PERSON_ORGANIZATION ( #270, #202, #59 ) ;
#231 = DIRECTION ( 'NONE',  ( 0.000000000000000000, 0.000000000000000000, 1.000000000000000000 ) ) ;
#232 = ORIENTED_EDGE ( 'NONE', *, *, #185, .T. ) ;
#233 = LINE ( 'NONE', #72, #107 ) ;
#234 = ORIENTED_EDGE ( 'NONE', *, *, #239, .F. ) ;
#235 = FACE_OUTER_BOUND ( 'NONE', #49, .T. ) ;
#236 = ORIENTED_EDGE ( 'NONE', *, *, #79, .F. ) ;
#237 = ADVANCED_BREP_SHAPE_REPRESENTATION ( '9c02', ( #243, #151 ), #219 ) ;
#238 = CALENDAR_DATE ( 2022, 7, 7 ) ;
#239 = EDGE_CURVE ( 'NONE', #206, #256, #253, .T. ) ;
#240 = DIRECTION ( 'NONE',  ( 1.000000000000000000, 0.000000000000000000, 0.000000000000000000 ) ) ;
#241 = CARTESIAN_POINT ( 'NONE',  ( 0.000000000000000000, 0.000000000000000000, 0.000000000000000000 ) ) ;
#242 = DATE_TIME_ROLE ( 'classification_date' ) ;
#243 = MANIFOLD_SOLID_BREP ( 'Zaoblit1', #226 ) ;
#244 = DIRECTION ( 'NONE',  ( 0.000000000000000000, 0.000000000000000000, 1.000000000000000000 ) ) ;
#245 = ORIENTED_EDGE ( 'NONE', *, *, #185, .F. ) ;
#246 = SECURITY_CLASSIFICATION ( '', '', #217 ) ;
#247 = AXIS2_PLACEMENT_3D ( 'NONE', #181, #244, #37 ) ;
#248 = DIRECTION ( 'NONE',  ( 1.000000000000000000, 0.000000000000000000, 0.000000000000000000 ) ) ;
#249 = APPLICATION_CONTEXT ( 'configuration controlled 3d designs of mechanical parts and assemblies' ) ;
#250 = DIRECTION ( 'NONE',  ( -0.000000000000000000, -0.000000000000000000, -1.000000000000000000 ) ) ;
#251 = ORIENTED_EDGE ( 'NONE', *, *, #36, .T. ) ;
#252 = VECTOR ( 'NONE', #68, 1000.000000000000000 ) ;
#253 = LINE ( 'NONE', #210, #31 ) ;
#254 = DIRECTION ( 'NONE',  ( -0.000000000000000000, -0.000000000000000000, -1.000000000000000000 ) ) ;
#255 = DIRECTION ( 'NONE',  ( 0.000000000000000000, -1.000000000000000000, 0.000000000000000000 ) ) ;
#256 = VERTEX_POINT ( 'NONE', #229 ) ;
#257 = EDGE_CURVE ( 'NONE', #143, #256, #65, .T. ) ;
#258 = ADVANCED_FACE ( 'NONE', ( #300 ), #46, .T. ) ;
#259 = DIRECTION ( 'NONE',  ( -1.000000000000000000, 0.000000000000000000, 0.000000000000000000 ) ) ;
#260 = AXIS2_PLACEMENT_3D ( 'NONE', #73, #88, #159 ) ;
#261 = AXIS2_PLACEMENT_3D ( 'NONE', #212, #190, #279 ) ;
#262 = ORIENTED_EDGE ( 'NONE', *, *, #36, .F. ) ;
#263 = CARTESIAN_POINT ( 'NONE',  ( 0.000000000000000000, 0.000000000000000000, 7.000000000000000000 ) ) ;
#264 = ORIENTED_EDGE ( 'NONE', *, *, #79, .T. ) ;
#265 = TOROIDAL_SURFACE ( 'NONE', #132, 9.199999999999999289, 0.2000000000000000111 ) ;
#266 = COORDINATED_UNIVERSAL_TIME_OFFSET ( 1, 0, .AHEAD. ) ;
#267 = PERSON_AND_ORGANIZATION_ROLE ( 'design_supplier' ) ;
#268 = APPLICATION_CONTEXT ( 'configuration controlled 3d designs of mechanical parts and assemblies' ) ;
#269 = AXIS2_PLACEMENT_3D ( 'NONE', #277, #179, #112 ) ;
#270 = PERSON_AND_ORGANIZATION ( #27, #204 ) ;
#271 = CARTESIAN_POINT ( 'NONE',  ( -9.199999999999999289, 1.126675055215564822E-15, 7.200000000000011724 ) ) ;
#272 = PLANE ( 'NONE',  #12 ) ;
#273 = CARTESIAN_POINT ( 'NONE',  ( 0.000000000000000000, 0.000000000000000000, 0.000000000000000000 ) ) ;
#274 = LOCAL_TIME ( 11, 36, 34.00000000000000000, #286 ) ;
#275 = CARTESIAN_POINT ( 'NONE',  ( 9.000000000000000000, 1.102182119232617714E-15, 257.0000000000000000 ) ) ;
#276 = EDGE_CURVE ( 'NONE', #156, #206, #215, .T. ) ;
#277 = CARTESIAN_POINT ( 'NONE',  ( 0.000000000000000000, 0.000000000000000000, 7.000000000000000000 ) ) ;
#278 = DIRECTION ( 'NONE',  ( 1.000000000000000000, 0.000000000000000000, -0.000000000000000000 ) ) ;
#279 = DIRECTION ( 'NONE',  ( 1.000000000000000000, 0.000000000000000000, 0.000000000000000000 ) ) ;
#280 = DIRECTION ( 'NONE',  ( 0.000000000000000000, 0.000000000000000000, 1.000000000000000000 ) ) ;
#281 = CC_DESIGN_PERSON_AND_ORGANIZATION_ASSIGNMENT ( #292, #267, ( #191 ) ) ;
#282 = CIRCLE ( 'NONE', #160, 9.000000000000000000 ) ;
#283 = DIRECTION ( 'NONE',  ( -0.000000000000000000, -0.000000000000000000, -1.000000000000000000 ) ) ;
#284 = ADVANCED_FACE ( 'NONE', ( #20 ), #77, .F. ) ;
#285 = EDGE_CURVE ( 'NONE', #198, #166, #50, .T. ) ;
#286 = COORDINATED_UNIVERSAL_TIME_OFFSET ( 1, 0, .AHEAD. ) ;
#287 = PRODUCT_DEFINITION_SHAPE ( 'NONE', 'NONE',  #114 ) ;
#288 = COORDINATED_UNIVERSAL_TIME_OFFSET ( 1, 0, .AHEAD. ) ;
#289 = APPROVAL_PERSON_ORGANIZATION ( #144, #91, #96 ) ;
#290 = PERSON_AND_ORGANIZATION ( #27, #204 ) ;
#291 = ORIENTED_EDGE ( 'NONE', *, *, #222, .F. ) ;
#292 = PERSON_AND_ORGANIZATION ( #27, #204 ) ;
#293 = EDGE_LOOP ( 'NONE', ( #44, #75, #173, #291 ) ) ;
#294 = AXIS2_PLACEMENT_3D ( 'NONE', #273, #9, #110 ) ;
#295 = DIRECTION ( 'NONE',  ( 1.000000000000000000, 0.000000000000000000, 0.000000000000000000 ) ) ;
#296 = ORIENTED_EDGE ( 'NONE', *, *, #161, .F. ) ;
#297 = CARTESIAN_POINT ( 'NONE',  ( 0.000000000000000000, 0.000000000000000000, 7.200000000000011724 ) ) ;
#298 = EDGE_LOOP ( 'NONE', ( #245, #133, #201, #53 ) ) ;
#299 = CARTESIAN_POINT ( 'NONE',  ( -9.000000000000000000, 0.000000000000000000, 7.200000000000011724 ) ) ;
#300 = FACE_OUTER_BOUND ( 'NONE', #137, .T. ) ;
#301 = DIRECTION ( 'NONE',  ( 1.000000000000000000, 0.000000000000000000, 0.000000000000000000 ) ) ;
#302 = ORIENTED_EDGE ( 'NONE', *, *, #34, .T. ) ;
#303 = CARTESIAN_POINT ( 'NONE',  ( 9.199999999999999289, 0.000000000000000000, 7.000000000000006217 ) ) ;
#304 = VERTEX_POINT ( 'NONE', #214 ) ;
#305 = AXIS2_PLACEMENT_3D ( 'NONE', #117, #16, #301 ) ;
#306 = COORDINATED_UNIVERSAL_TIME_OFFSET ( 1, 0, .AHEAD. ) ;
#307 = APPROVAL_DATE_TIME ( #169, #91 ) ;
ENDSEC;
END-ISO-10303-21;
