ISO-10303-21;
HEADER;
FILE_DESCRIPTION (( 'STEP AP203' ),
    '1' );
FILE_NAME ('73fb.STEP',
    '2022-07-07T10:06:42',
    ( '' ),
    ( '' ),
    'SwSTEP 2.0',
    'SolidWorks 2019',
    '' );
FILE_SCHEMA (( 'CONFIG_CONTROL_DESIGN' ));
ENDSEC;

DATA;
#1 = DIRECTION ( 'NONE',  ( -0.000000000000000000, -0.000000000000000000, -1.000000000000000000 ) ) ;
#2 = FACE_BOUND ( 'NONE', #51, .T. ) ;
#3 =( NAMED_UNIT ( * ) SI_UNIT ( $, .STERADIAN. ) SOLID_ANGLE_UNIT ( ) );
#4 = DATE_AND_TIME ( #241, #27 ) ;
#5 = ADVANCED_FACE ( 'NONE', ( #180 ), #228, .T. ) ;
#6 = PERSON_AND_ORGANIZATION ( #126, #135 ) ;
#7 = ORIENTED_EDGE ( 'NONE', *, *, #20, .T. ) ;
#8 = COORDINATED_UNIVERSAL_TIME_OFFSET ( 1, 0, .AHEAD. ) ;
#9 = APPROVAL_PERSON_ORGANIZATION ( #52, #284, #71 ) ;
#10 = ORIENTED_EDGE ( 'NONE', *, *, #220, .F. ) ;
#11 = AXIS2_PLACEMENT_3D ( 'NONE', #278, #86, #205 ) ;
#12 = LOCAL_TIME ( 12, 6, 42.00000000000000000, #269 ) ;
#13 = DIRECTION ( 'NONE',  ( 1.000000000000000000, 0.000000000000000000, 0.000000000000000000 ) ) ;
#14 = EDGE_CURVE ( 'NONE', #41, #270, #61, .T. ) ;
#15 = DIRECTION ( 'NONE',  ( 1.000000000000000000, 0.000000000000000000, 0.000000000000000000 ) ) ;
#16 = PRODUCT_DEFINITION_SHAPE ( 'NONE', 'NONE',  #66 ) ;
#17 = DIRECTION ( 'NONE',  ( -0.000000000000000000, -0.000000000000000000, -1.000000000000000000 ) ) ;
#18 = AXIS2_PLACEMENT_3D ( 'NONE', #305, #283, #187 ) ;
#19 = FACE_OUTER_BOUND ( 'NONE', #279, .T. ) ;
#20 = EDGE_CURVE ( 'NONE', #217, #41, #300, .T. ) ;
#21 = CYLINDRICAL_SURFACE ( 'NONE', #91, 6.000000000000000888 ) ;
#22 = CIRCLE ( 'NONE', #124, 3.500000000000000000 ) ;
#23 = DIRECTION ( 'NONE',  ( -0.000000000000000000, -0.000000000000000000, -1.000000000000000000 ) ) ;
#24 = LINE ( 'NONE', #235, #49 ) ;
#25 = DIRECTION ( 'NONE',  ( 0.000000000000000000, -1.000000000000000000, 0.000000000000000000 ) ) ;
#26 = DIRECTION ( 'NONE',  ( -1.000000000000000000, 0.000000000000000000, 0.000000000000000000 ) ) ;
#27 = LOCAL_TIME ( 12, 6, 42.00000000000000000, #294 ) ;
#28 = DATE_AND_TIME ( #172, #175 ) ;
#29 = CALENDAR_DATE ( 2022, 7, 7 ) ;
#30 = ORIENTED_EDGE ( 'NONE', *, *, #173, .T. ) ;
#31 = DATE_AND_TIME ( #29, #12 ) ;
#32 = EDGE_LOOP ( 'NONE', ( #79, #145, #224, #82 ) ) ;
#33 = ADVANCED_FACE ( 'NONE', ( #207 ), #160, .F. ) ;
#34 = APPROVAL_DATE_TIME ( #4, #188 ) ;
#35 = ORIENTED_EDGE ( 'NONE', *, *, #220, .T. ) ;
#36 = AXIS2_PLACEMENT_3D ( 'NONE', #104, #252, #15 ) ;
#37 = ADVANCED_FACE ( 'NONE', ( #19 ), #83, .T. ) ;
#38 = DIRECTION ( 'NONE',  ( -0.000000000000000000, -0.000000000000000000, -1.000000000000000000 ) ) ;
#39 = CIRCLE ( 'NONE', #247, 0.1999999999999996503 ) ;
#40 = DIRECTION ( 'NONE',  ( 1.000000000000000000, 0.000000000000000000, 0.000000000000000000 ) ) ;
#41 = VERTEX_POINT ( 'NONE', #108 ) ;
#42 = CARTESIAN_POINT ( 'NONE',  ( 0.000000000000000000, 0.000000000000000000, 0.000000000000000000 ) ) ;
#43 = APPROVAL_PERSON_ORGANIZATION ( #169, #188, #216 ) ;
#44 = CARTESIAN_POINT ( 'NONE',  ( 0.000000000000000000, 0.000000000000000000, 5.199999999999982414 ) ) ;
#45 = DIRECTION ( 'NONE',  ( 1.000000000000000000, 0.000000000000000000, 0.000000000000000000 ) ) ;
#46 = CYLINDRICAL_SURFACE ( 'NONE', #113, 3.500000000000000000 ) ;
#47 = CARTESIAN_POINT ( 'NONE',  ( 3.500000000000000000, 4.286263797015736595E-16, 405.0000000000000000 ) ) ;
#48 = APPLICATION_PROTOCOL_DEFINITION ( 'international standard', 'config_control_design', 1994, #72 ) ;
#49 = VECTOR ( 'NONE', #212, 1000.000000000000000 ) ;
#50 = DIRECTION ( 'NONE',  ( 0.000000000000000000, 0.000000000000000000, 1.000000000000000000 ) ) ;
#51 = EDGE_LOOP ( 'NONE', ( #30, #96 ) ) ;
#52 = PERSON_AND_ORGANIZATION ( #126, #135 ) ;
#53 = VERTEX_POINT ( 'NONE', #202 ) ;
#54 = VECTOR ( 'NONE', #23, 1000.000000000000000 ) ;
#55 = ORIENTED_EDGE ( 'NONE', *, *, #157, .T. ) ;
#56 = ORIENTED_EDGE ( 'NONE', *, *, #173, .F. ) ;
#57 = ADVANCED_FACE ( 'NONE', ( #277 ), #231, .F. ) ;
#58 = DIRECTION ( 'NONE',  ( 1.000000000000000000, 0.000000000000000000, -0.000000000000000000 ) ) ;
#59 = CARTESIAN_POINT ( 'NONE',  ( -3.500000000000000000, 0.000000000000000000, 405.0000000000000000 ) ) ;
#60 = DIRECTION ( 'NONE',  ( 1.000000000000000000, 0.000000000000000000, -0.000000000000000000 ) ) ;
#61 = LINE ( 'NONE', #297, #238 ) ;
#62 = CC_DESIGN_DATE_AND_TIME_ASSIGNMENT ( #31, #117, ( #236 ) ) ;
#63 = CARTESIAN_POINT ( 'NONE',  ( 0.000000000000000000, 0.000000000000000000, 5.000000000000000000 ) ) ;
#64 = CIRCLE ( 'NONE', #18, 3.500000000000000000 ) ;
#65 = DIRECTION ( 'NONE',  ( 0.000000000000000000, 0.000000000000000000, -1.000000000000000000 ) ) ;
#66 = PRODUCT_DEFINITION ( 'NEZNÁMÝ', '', #274, #171 ) ;
#67 = CARTESIAN_POINT ( 'NONE',  ( 6.000000000000000888, 7.347880794884120722E-16, 0.000000000000000000 ) ) ;
#68 = CARTESIAN_POINT ( 'NONE',  ( 0.000000000000000000, 0.000000000000000000, 5.000000000000000000 ) ) ;
#69 =( LENGTH_UNIT ( ) NAMED_UNIT ( * ) SI_UNIT ( .MILLI., .METRE. ) );
#70 = CC_DESIGN_PERSON_AND_ORGANIZATION_ASSIGNMENT ( #191, #275, ( #274 ) ) ;
#71 = APPROVAL_ROLE ( '' ) ;
#72 = APPLICATION_CONTEXT ( 'configuration controlled 3d designs of mechanical parts and assemblies' ) ;
#73 = ORIENTED_EDGE ( 'NONE', *, *, #128, .F. ) ;
#74 = AXIS2_PLACEMENT_3D ( 'NONE', #112, #259, #94 ) ;
#75 = ADVANCED_BREP_SHAPE_REPRESENTATION ( '73fb', ( #208, #251 ), #229 ) ;
#76 = APPROVAL_DATE_TIME ( #142, #284 ) ;
#77 = ORIENTED_EDGE ( 'NONE', *, *, #178, .F. ) ;
#78 = DIRECTION ( 'NONE',  ( 1.000000000000000000, 0.000000000000000000, 0.000000000000000000 ) ) ;
#79 = ORIENTED_EDGE ( 'NONE', *, *, #122, .F. ) ;
#80 = UNCERTAINTY_MEASURE_WITH_UNIT (LENGTH_MEASURE( 1.000000000000000082E-05 ), #69, 'distance_accuracy_value', 'NONE');
#81 = AXIS2_PLACEMENT_3D ( 'NONE', #42, #230, #298 ) ;
#82 = ORIENTED_EDGE ( 'NONE', *, *, #111, .F. ) ;
#83 = CYLINDRICAL_SURFACE ( 'NONE', #210, 6.000000000000000888 ) ;
#84 = CC_DESIGN_PERSON_AND_ORGANIZATION_ASSIGNMENT ( #147, #95, ( #274 ) ) ;
#85 = DIRECTION ( 'NONE',  ( 0.000000000000000000, 0.000000000000000000, 1.000000000000000000 ) ) ;
#86 = DIRECTION ( 'NONE',  ( 0.000000000000000000, 0.000000000000000000, 1.000000000000000000 ) ) ;
#87 = ORIENTED_EDGE ( 'NONE', *, *, #122, .T. ) ;
#88 = VECTOR ( 'NONE', #38, 1000.000000000000000 ) ;
#89 = DIRECTION ( 'NONE',  ( 1.224646799147353207E-16, 1.000000000000000000, -0.000000000000000000 ) ) ;
#90 = ADVANCED_FACE ( 'NONE', ( #130 ), #280, .T. ) ;
#91 = AXIS2_PLACEMENT_3D ( 'NONE', #68, #209, #161 ) ;
#92 = CARTESIAN_POINT ( 'NONE',  ( 0.000000000000000000, 0.000000000000000000, 0.000000000000000000 ) ) ;
#93 = DIRECTION ( 'NONE',  ( -0.000000000000000000, -0.000000000000000000, -1.000000000000000000 ) ) ;
#94 = DIRECTION ( 'NONE',  ( 1.000000000000000000, 0.000000000000000000, -0.000000000000000000 ) ) ;
#95 = PERSON_AND_ORGANIZATION_ROLE ( 'creator' ) ;
#96 = ORIENTED_EDGE ( 'NONE', *, *, #178, .T. ) ;
#97 = LOCAL_TIME ( 12, 6, 42.00000000000000000, #8 ) ;
#98 = MECHANICAL_CONTEXT ( 'NONE', #72, 'mechanical' ) ;
#99 = ORIENTED_EDGE ( 'NONE', *, *, #141, .F. ) ;
#100 = ORIENTED_EDGE ( 'NONE', *, *, #128, .T. ) ;
#101 = ORIENTED_EDGE ( 'NONE', *, *, #299, .T. ) ;
#102 = CC_DESIGN_APPROVAL ( #183, ( #236 ) ) ;
#103 = ORIENTED_EDGE ( 'NONE', *, *, #111, .T. ) ;
#104 = CARTESIAN_POINT ( 'NONE',  ( 0.000000000000000000, 0.000000000000000000, 0.000000000000000000 ) ) ;
#105 = PRODUCT ( '73fb', '73fb', '', ( #98 ) ) ;
#106 = CARTESIAN_POINT ( 'NONE',  ( 0.000000000000000000, 0.000000000000000000, 405.0000000000000000 ) ) ;
#107 = LINE ( 'NONE', #59, #88 ) ;
#108 = CARTESIAN_POINT ( 'NONE',  ( 6.000000000000000888, 7.347880794884120722E-16, 5.000000000000000000 ) ) ;
#109 = DIRECTION ( 'NONE',  ( -0.000000000000000000, -0.000000000000000000, -1.000000000000000000 ) ) ;
#110 = FACE_OUTER_BOUND ( 'NONE', #290, .T. ) ;
#111 = EDGE_CURVE ( 'NONE', #194, #296, #107, .T. ) ;
#112 = CARTESIAN_POINT ( 'NONE',  ( 0.000000000000000000, 0.000000000000000000, 5.000000000000000000 ) ) ;
#113 = AXIS2_PLACEMENT_3D ( 'NONE', #189, #1, #26 ) ;
#114 = APPROVAL_STATUS ( 'not_yet_approved' ) ;
#115 = CC_DESIGN_PERSON_AND_ORGANIZATION_ASSIGNMENT ( #293, #295, ( #105 ) ) ;
#116 = VERTEX_POINT ( 'NONE', #304 ) ;
#117 = DATE_TIME_ROLE ( 'classification_date' ) ;
#118 = ORIENTED_EDGE ( 'NONE', *, *, #14, .F. ) ;
#119 = CIRCLE ( 'NONE', #282, 3.700000000000000178 ) ;
#120 = PERSON_AND_ORGANIZATION_ROLE ( 'classification_officer' ) ;
#121 = ORIENTED_EDGE ( 'NONE', *, *, #157, .F. ) ;
#122 = EDGE_CURVE ( 'NONE', #116, #194, #22, .T. ) ;
#123 = ORIENTED_EDGE ( 'NONE', *, *, #192, .T. ) ;
#124 = AXIS2_PLACEMENT_3D ( 'NONE', #303, #226, #13 ) ;
#125 = CARTESIAN_POINT ( 'NONE',  ( 0.000000000000000000, 0.000000000000000000, 0.000000000000000000 ) ) ;
#126 = PERSON ( 'NEURÈENÝ', 'NEURÈENÝ', 'NEURÈENÝ', ('NEURÈENÝ'), ('NEURÈENÝ'), ('NEURÈENÝ') ) ;
#127 = DIRECTION ( 'NONE',  ( -1.000000000000000000, 0.000000000000000000, 0.000000000000000000 ) ) ;
#128 = EDGE_CURVE ( 'NONE', #193, #270, #307, .T. ) ;
#129 = CARTESIAN_POINT ( 'NONE',  ( 0.000000000000000000, 0.000000000000000000, 5.000000000000000000 ) ) ;
#130 = FACE_OUTER_BOUND ( 'NONE', #32, .T. ) ;
#131 = CARTESIAN_POINT ( 'NONE',  ( 0.000000000000000000, 0.000000000000000000, 405.0000000000000000 ) ) ;
#132 = EDGE_CURVE ( 'NONE', #41, #217, #211, .T. ) ;
#133 = CARTESIAN_POINT ( 'NONE',  ( -6.000000000000000888, 0.000000000000000000, 0.000000000000000000 ) ) ;
#134 = CARTESIAN_POINT ( 'NONE',  ( 0.000000000000000000, 0.000000000000000000, 5.000000000000000000 ) ) ;
#135 = ORGANIZATION ( 'NEURÈENÝ', 'NEURÈENÝ', '' ) ;
#136 = FACE_OUTER_BOUND ( 'NONE', #168, .T. ) ;
#137 = ADVANCED_FACE ( 'NONE', ( #201 ), #203, .F. ) ;
#138 =( NAMED_UNIT ( * ) PLANE_ANGLE_UNIT ( ) SI_UNIT ( $, .RADIAN. ) );
#139 = CARTESIAN_POINT ( 'NONE',  ( -3.500000000000000000, 0.000000000000000000, 405.0000000000000000 ) ) ;
#140 = AXIS2_PLACEMENT_3D ( 'NONE', #255, #227, #40 ) ;
#141 = EDGE_CURVE ( 'NONE', #270, #193, #215, .T. ) ;
#142 = DATE_AND_TIME ( #143, #302 ) ;
#143 = CALENDAR_DATE ( 2022, 7, 7 ) ;
#144 = CALENDAR_DATE ( 2022, 7, 7 ) ;
#145 = ORIENTED_EDGE ( 'NONE', *, *, #291, .T. ) ;
#146 = AXIS2_PLACEMENT_3D ( 'NONE', #158, #285, #233 ) ;
#147 = PERSON_AND_ORGANIZATION ( #126, #135 ) ;
#148 = EDGE_LOOP ( 'NONE', ( #10, #223, #101, #77 ) ) ;
#149 = DIRECTION ( 'NONE',  ( 0.000000000000000000, 0.000000000000000000, 1.000000000000000000 ) ) ;
#150 = AXIS2_PLACEMENT_3D ( 'NONE', #154, #152, #301 ) ;
#151 = AXIS2_PLACEMENT_3D ( 'NONE', #44, #85, #182 ) ;
#152 = DIRECTION ( 'NONE',  ( 0.000000000000000000, 0.000000000000000000, 1.000000000000000000 ) ) ;
#153 = DIRECTION ( 'NONE',  ( -0.000000000000000000, -0.000000000000000000, -1.000000000000000000 ) ) ;
#154 = CARTESIAN_POINT ( 'NONE',  ( 0.000000000000000000, 0.000000000000000000, 5.000000000000000000 ) ) ;
#155 = AXIS2_PLACEMENT_3D ( 'NONE', #106, #149, #60 ) ;
#156 = CIRCLE ( 'NONE', #146, 3.500000000000000000 ) ;
#157 = EDGE_CURVE ( 'NONE', #296, #53, #186, .T. ) ;
#158 = CARTESIAN_POINT ( 'NONE',  ( 0.000000000000000000, 0.000000000000000000, 5.199999999999982414 ) ) ;
#159 = CARTESIAN_POINT ( 'NONE',  ( -6.000000000000000888, 0.000000000000000000, 5.000000000000000000 ) ) ;
#160 = TOROIDAL_SURFACE ( 'NONE', #11, 3.700000000000000178, 0.2000000000000000111 ) ;
#161 = DIRECTION ( 'NONE',  ( -1.000000000000000000, 0.000000000000000000, 0.000000000000000000 ) ) ;
#162 = CC_DESIGN_APPROVAL ( #284, ( #66 ) ) ;
#163 = CARTESIAN_POINT ( 'NONE',  ( 3.700000000000000178, 0.000000000000000000, 4.999999999999991118 ) ) ;
#164 = PERSON_AND_ORGANIZATION_ROLE ( 'creator' ) ;
#165 = VERTEX_POINT ( 'NONE', #281 ) ;
#166 = CIRCLE ( 'NONE', #256, 3.700000000000000178 ) ;
#167 = COORDINATED_UNIVERSAL_TIME_OFFSET ( 1, 0, .AHEAD. ) ;
#168 = EDGE_LOOP ( 'NONE', ( #222, #170, #103, #55 ) ) ;
#169 = PERSON_AND_ORGANIZATION ( #126, #135 ) ;
#170 = ORIENTED_EDGE ( 'NONE', *, *, #249, .F. ) ;
#171 = DESIGN_CONTEXT ( 'detailed design', #214, 'design' ) ;
#172 = CALENDAR_DATE ( 2022, 7, 7 ) ;
#173 = EDGE_CURVE ( 'NONE', #276, #165, #166, .T. ) ;
#174 = ORIENTED_EDGE ( 'NONE', *, *, #192, .F. ) ;
#175 = LOCAL_TIME ( 12, 6, 42.00000000000000000, #167 ) ;
#176 = ORIENTED_EDGE ( 'NONE', *, *, #249, .T. ) ;
#177 = DIRECTION ( 'NONE',  ( -0.000000000000000000, -0.000000000000000000, -1.000000000000000000 ) ) ;
#178 = EDGE_CURVE ( 'NONE', #165, #276, #119, .T. ) ;
#179 = DIRECTION ( 'NONE',  ( 0.000000000000000000, 0.000000000000000000, 1.000000000000000000 ) ) ;
#180 = FACE_OUTER_BOUND ( 'NONE', #200, .T. ) ;
#181 = DIRECTION ( 'NONE',  ( 0.000000000000000000, 0.000000000000000000, 1.000000000000000000 ) ) ;
#182 = DIRECTION ( 'NONE',  ( 1.000000000000000000, 0.000000000000000000, 0.000000000000000000 ) ) ;
#183 = APPROVAL ( #271, 'NEURÈENÝ' ) ;
#184 = AXIS2_PLACEMENT_3D ( 'NONE', #125, #181, #58 ) ;
#185 = LINE ( 'NONE', #47, #54 ) ;
#186 = CIRCLE ( 'NONE', #151, 3.500000000000000000 ) ;
#187 = DIRECTION ( 'NONE',  ( 1.000000000000000000, 0.000000000000000000, 0.000000000000000000 ) ) ;
#188 = APPROVAL ( #114, 'NEURÈENÝ' ) ;
#189 = CARTESIAN_POINT ( 'NONE',  ( 0.000000000000000000, 0.000000000000000000, 405.0000000000000000 ) ) ;
#190 = CIRCLE ( 'NONE', #225, 0.2000000000000000944 ) ;
#191 = PERSON_AND_ORGANIZATION ( #126, #135 ) ;
#192 = EDGE_CURVE ( 'NONE', #217, #193, #24, .T. ) ;
#193 = VERTEX_POINT ( 'NONE', #133 ) ;
#194 = VERTEX_POINT ( 'NONE', #139 ) ;
#195 = COORDINATED_UNIVERSAL_TIME_OFFSET ( 1, 0, .AHEAD. ) ;
#196 = EDGE_LOOP ( 'NONE', ( #272, #219, #199, #174 ) ) ;
#197 = APPROVAL_DATE_TIME ( #248, #183 ) ;
#198 = CLOSED_SHELL ( 'NONE', ( #33, #90, #258, #37, #306, #57, #232, #5, #137 ) ) ;
#199 = ORIENTED_EDGE ( 'NONE', *, *, #141, .T. ) ;
#200 = EDGE_LOOP ( 'NONE', ( #176, #87 ) ) ;
#201 = FACE_OUTER_BOUND ( 'NONE', #148, .T. ) ;
#202 = CARTESIAN_POINT ( 'NONE',  ( 3.500000000000000000, 4.286263797015736595E-16, 5.199999999999982414 ) ) ;
#203 = TOROIDAL_SURFACE ( 'NONE', #140, 3.700000000000000178, 0.2000000000000000111 ) ;
#204 = CC_DESIGN_SECURITY_CLASSIFICATION ( #236, ( #274 ) ) ;
#205 = DIRECTION ( 'NONE',  ( 1.000000000000000000, 0.000000000000000000, 0.000000000000000000 ) ) ;
#206 = PRODUCT_RELATED_PRODUCT_CATEGORY ( 'detail', '', ( #105 ) ) ;
#207 = FACE_OUTER_BOUND ( 'NONE', #273, .T. ) ;
#208 = MANIFOLD_SOLID_BREP ( 'Zaoblit1', #198 ) ;
#209 = DIRECTION ( 'NONE',  ( -0.000000000000000000, -0.000000000000000000, -1.000000000000000000 ) ) ;
#210 = AXIS2_PLACEMENT_3D ( 'NONE', #129, #177, #127 ) ;
#211 = CIRCLE ( 'NONE', #150, 6.000000000000000888 ) ;
#212 = DIRECTION ( 'NONE',  ( -0.000000000000000000, -0.000000000000000000, -1.000000000000000000 ) ) ;
#213 = PLANE ( 'NONE',  #74 ) ;
#214 = APPLICATION_CONTEXT ( 'configuration controlled 3d designs of mechanical parts and assemblies' ) ;
#215 = CIRCLE ( 'NONE', #81, 6.000000000000000888 ) ;
#216 = APPROVAL_ROLE ( '' ) ;
#217 = VERTEX_POINT ( 'NONE', #159 ) ;
#218 = APPROVAL_ROLE ( '' ) ;
#219 = ORIENTED_EDGE ( 'NONE', *, *, #14, .T. ) ;
#220 = EDGE_CURVE ( 'NONE', #296, #165, #190, .T. ) ;
#221 = PERSON_AND_ORGANIZATION ( #126, #135 ) ;
#222 = ORIENTED_EDGE ( 'NONE', *, *, #291, .F. ) ;
#223 = ORIENTED_EDGE ( 'NONE', *, *, #254, .F. ) ;
#224 = ORIENTED_EDGE ( 'NONE', *, *, #254, .T. ) ;
#225 = AXIS2_PLACEMENT_3D ( 'NONE', #262, #89, #260 ) ;
#226 = DIRECTION ( 'NONE',  ( 0.000000000000000000, 0.000000000000000000, 1.000000000000000000 ) ) ;
#227 = DIRECTION ( 'NONE',  ( 0.000000000000000000, 0.000000000000000000, 1.000000000000000000 ) ) ;
#228 = PLANE ( 'NONE',  #155 ) ;
#229 =( GEOMETRIC_REPRESENTATION_CONTEXT ( 3 ) GLOBAL_UNCERTAINTY_ASSIGNED_CONTEXT ( ( #80 ) ) GLOBAL_UNIT_ASSIGNED_CONTEXT ( ( #69, #138, #3 ) ) REPRESENTATION_CONTEXT ( 'NONE', 'WORKASPACE' ) );
#230 = DIRECTION ( 'NONE',  ( 0.000000000000000000, 0.000000000000000000, 1.000000000000000000 ) ) ;
#231 = PLANE ( 'NONE',  #184 ) ;
#232 = ADVANCED_FACE ( 'NONE', ( #136 ), #46, .T. ) ;
#233 = DIRECTION ( 'NONE',  ( 1.000000000000000000, 0.000000000000000000, 0.000000000000000000 ) ) ;
#234 = APPROVAL_PERSON_ORGANIZATION ( #221, #183, #218 ) ;
#235 = CARTESIAN_POINT ( 'NONE',  ( -6.000000000000000888, 0.000000000000000000, 5.000000000000000000 ) ) ;
#236 = SECURITY_CLASSIFICATION ( '', '', #239 ) ;
#237 = CARTESIAN_POINT ( 'NONE',  ( -3.500000000000000000, 0.000000000000000000, 5.199999999999982414 ) ) ;
#238 = VECTOR ( 'NONE', #153, 1000.000000000000000 ) ;
#239 = SECURITY_CLASSIFICATION_LEVEL ( 'unclassified' ) ;
#240 = CC_DESIGN_APPROVAL ( #188, ( #274 ) ) ;
#241 = CALENDAR_DATE ( 2022, 7, 7 ) ;
#242 = ORIENTED_EDGE ( 'NONE', *, *, #299, .F. ) ;
#243 = DATE_TIME_ROLE ( 'creation_date' ) ;
#244 = ORIENTED_EDGE ( 'NONE', *, *, #20, .F. ) ;
#245 = SHAPE_DEFINITION_REPRESENTATION ( #16, #75 ) ;
#246 = ORIENTED_EDGE ( 'NONE', *, *, #132, .T. ) ;
#247 = AXIS2_PLACEMENT_3D ( 'NONE', #288, #25, #65 ) ;
#248 = DATE_AND_TIME ( #144, #97 ) ;
#249 = EDGE_CURVE ( 'NONE', #194, #116, #64, .T. ) ;
#250 = DIRECTION ( 'NONE',  ( 1.000000000000000000, 0.000000000000000000, 0.000000000000000000 ) ) ;
#251 = AXIS2_PLACEMENT_3D ( 'NONE', #92, #50, #78 ) ;
#252 = DIRECTION ( 'NONE',  ( 0.000000000000000000, 0.000000000000000000, 1.000000000000000000 ) ) ;
#253 = CARTESIAN_POINT ( 'NONE',  ( 0.000000000000000000, 0.000000000000000000, 5.000000000000000000 ) ) ;
#254 = EDGE_CURVE ( 'NONE', #53, #296, #156, .T. ) ;
#255 = CARTESIAN_POINT ( 'NONE',  ( 0.000000000000000000, 0.000000000000000000, 5.199999999999982414 ) ) ;
#256 = AXIS2_PLACEMENT_3D ( 'NONE', #63, #109, #263 ) ;
#257 = DIRECTION ( 'NONE',  ( -1.000000000000000000, 0.000000000000000000, 0.000000000000000000 ) ) ;
#258 = ADVANCED_FACE ( 'NONE', ( #286 ), #21, .T. ) ;
#259 = DIRECTION ( 'NONE',  ( 0.000000000000000000, 0.000000000000000000, 1.000000000000000000 ) ) ;
#260 = DIRECTION ( 'NONE',  ( -1.000000000000000000, 1.224646799147350742E-16, 0.000000000000000000 ) ) ;
#261 = AXIS2_PLACEMENT_3D ( 'NONE', #253, #179, #250 ) ;
#262 = CARTESIAN_POINT ( 'NONE',  ( -3.700000000000000178, 4.531193156845206201E-16, 5.199999999999982414 ) ) ;
#263 = DIRECTION ( 'NONE',  ( 1.000000000000000000, 0.000000000000000000, 0.000000000000000000 ) ) ;
#264 = CC_DESIGN_DATE_AND_TIME_ASSIGNMENT ( #28, #243, ( #66 ) ) ;
#265 = AXIS2_PLACEMENT_3D ( 'NONE', #131, #17, #257 ) ;
#266 = APPLICATION_PROTOCOL_DEFINITION ( 'international standard', 'config_control_design', 1994, #214 ) ;
#267 = EDGE_LOOP ( 'NONE', ( #73, #99 ) ) ;
#268 = CC_DESIGN_PERSON_AND_ORGANIZATION_ASSIGNMENT ( #6, #164, ( #66 ) ) ;
#269 = COORDINATED_UNIVERSAL_TIME_OFFSET ( 1, 0, .AHEAD. ) ;
#270 = VERTEX_POINT ( 'NONE', #67 ) ;
#271 = APPROVAL_STATUS ( 'not_yet_approved' ) ;
#272 = ORIENTED_EDGE ( 'NONE', *, *, #132, .F. ) ;
#273 = EDGE_LOOP ( 'NONE', ( #121, #35, #56, #242 ) ) ;
#274 = PRODUCT_DEFINITION_FORMATION_WITH_SPECIFIED_SOURCE ( 'LIBOVOLNÝ', '', #105, .NOT_KNOWN. ) ;
#275 = PERSON_AND_ORGANIZATION_ROLE ( 'design_supplier' ) ;
#276 = VERTEX_POINT ( 'NONE', #163 ) ;
#277 = FACE_OUTER_BOUND ( 'NONE', #267, .T. ) ;
#278 = CARTESIAN_POINT ( 'NONE',  ( 0.000000000000000000, 0.000000000000000000, 5.199999999999982414 ) ) ;
#279 = EDGE_LOOP ( 'NONE', ( #118, #244, #123, #100 ) ) ;
#280 = CYLINDRICAL_SURFACE ( 'NONE', #265, 3.500000000000000000 ) ;
#281 = CARTESIAN_POINT ( 'NONE',  ( -3.700000000000000178, 4.531193156845206201E-16, 4.999999999999991118 ) ) ;
#282 = AXIS2_PLACEMENT_3D ( 'NONE', #134, #93, #45 ) ;
#283 = DIRECTION ( 'NONE',  ( 0.000000000000000000, 0.000000000000000000, 1.000000000000000000 ) ) ;
#284 = APPROVAL ( #292, 'NEURÈENÝ' ) ;
#285 = DIRECTION ( 'NONE',  ( 0.000000000000000000, 0.000000000000000000, 1.000000000000000000 ) ) ;
#286 = FACE_OUTER_BOUND ( 'NONE', #196, .T. ) ;
#287 = CC_DESIGN_PERSON_AND_ORGANIZATION_ASSIGNMENT ( #289, #120, ( #236 ) ) ;
#288 = CARTESIAN_POINT ( 'NONE',  ( 3.700000000000000178, 0.000000000000000000, 5.199999999999982414 ) ) ;
#289 = PERSON_AND_ORGANIZATION ( #126, #135 ) ;
#290 = EDGE_LOOP ( 'NONE', ( #7, #246 ) ) ;
#291 = EDGE_CURVE ( 'NONE', #116, #53, #185, .T. ) ;
#292 = APPROVAL_STATUS ( 'not_yet_approved' ) ;
#293 = PERSON_AND_ORGANIZATION ( #126, #135 ) ;
#294 = COORDINATED_UNIVERSAL_TIME_OFFSET ( 1, 0, .AHEAD. ) ;
#295 = PERSON_AND_ORGANIZATION_ROLE ( 'design_owner' ) ;
#296 = VERTEX_POINT ( 'NONE', #237 ) ;
#297 = CARTESIAN_POINT ( 'NONE',  ( 6.000000000000000888, 7.347880794884120722E-16, 5.000000000000000000 ) ) ;
#298 = DIRECTION ( 'NONE',  ( 1.000000000000000000, 0.000000000000000000, 0.000000000000000000 ) ) ;
#299 = EDGE_CURVE ( 'NONE', #53, #276, #39, .T. ) ;
#300 = CIRCLE ( 'NONE', #261, 6.000000000000000888 ) ;
#301 = DIRECTION ( 'NONE',  ( 1.000000000000000000, 0.000000000000000000, 0.000000000000000000 ) ) ;
#302 = LOCAL_TIME ( 12, 6, 42.00000000000000000, #195 ) ;
#303 = CARTESIAN_POINT ( 'NONE',  ( 0.000000000000000000, 0.000000000000000000, 405.0000000000000000 ) ) ;
#304 = CARTESIAN_POINT ( 'NONE',  ( 3.500000000000000000, 4.286263797015736595E-16, 405.0000000000000000 ) ) ;
#305 = CARTESIAN_POINT ( 'NONE',  ( 0.000000000000000000, 0.000000000000000000, 405.0000000000000000 ) ) ;
#306 = ADVANCED_FACE ( 'NONE', ( #2, #110 ), #213, .T. ) ;
#307 = CIRCLE ( 'NONE', #36, 6.000000000000000888 ) ;
ENDSEC;
END-ISO-10303-21;
