ISO-10303-21;
HEADER;
FILE_DESCRIPTION (( 'STEP AP203' ),
    '1' );
FILE_NAME ('b6cc.STEP',
    '2022-07-07T10:41:00',
    ( '' ),
    ( '' ),
    'SwSTEP 2.0',
    'SolidWorks 2019',
    '' );
FILE_SCHEMA (( 'CONFIG_CONTROL_DESIGN' ));
ENDSEC;

DATA;
#1 = AXIS2_PLACEMENT_3D ( 'NONE', #207, #65, #58 ) ;
#2 = CALENDAR_DATE ( 2022, 7, 7 ) ;
#3 = EDGE_CURVE ( 'NONE', #197, #182, #287, .T. ) ;
#4 = DATE_AND_TIME ( #167, #206 ) ;
#5 = MANIFOLD_SOLID_BREP ( 'Zaoblit1', #304 ) ;
#6 = DATE_AND_TIME ( #2, #145 ) ;
#7 = DIRECTION ( 'NONE',  ( 0.000000000000000000, 0.000000000000000000, 1.000000000000000000 ) ) ;
#8 = APPROVAL_PERSON_ORGANIZATION ( #288, #104, #169 ) ;
#9 = DIRECTION ( 'NONE',  ( -1.000000000000000000, 0.000000000000000000, 0.000000000000000000 ) ) ;
#10 = DIRECTION ( 'NONE',  ( 1.000000000000000000, 0.000000000000000000, 0.000000000000000000 ) ) ;
#11 = DIRECTION ( 'NONE',  ( -0.000000000000000000, -0.000000000000000000, -1.000000000000000000 ) ) ;
#12 = VERTEX_POINT ( 'NONE', #117 ) ;
#13 = LINE ( 'NONE', #150, #299 ) ;
#14 = EDGE_LOOP ( 'NONE', ( #147, #74, #247, #78 ) ) ;
#15 = PLANE ( 'NONE',  #57 ) ;
#16 = PERSON ( 'NEURÈENÝ', 'NEURÈENÝ', 'NEURÈENÝ', ('NEURÈENÝ'), ('NEURÈENÝ'), ('NEURÈENÝ') ) ;
#17 = CARTESIAN_POINT ( 'NONE',  ( 0.7500000000000000000, 0.000000000000000000, 1.400000000000012346 ) ) ;
#18 = CARTESIAN_POINT ( 'NONE',  ( -1.250000000000000000, 0.000000000000000000, 1.199999999999999956 ) ) ;
#19 = CIRCLE ( 'NONE', #113, 1.250000000000000000 ) ;
#20 = DESIGN_CONTEXT ( 'detailed design', #95, 'design' ) ;
#21 = APPROVAL ( #266, 'NEURÈENÝ' ) ;
#22 = VECTOR ( 'NONE', #36, 1000.000000000000000 ) ;
#23 = CC_DESIGN_PERSON_AND_ORGANIZATION_ASSIGNMENT ( #24, #192, ( #178 ) ) ;
#24 = PERSON_AND_ORGANIZATION ( #16, #115 ) ;
#25 = PRODUCT_DEFINITION ( 'NEZNÁMÝ', '', #178, #20 ) ;
#26 = EDGE_LOOP ( 'NONE', ( #85, #223, #209, #149 ) ) ;
#27 = ORIENTED_EDGE ( 'NONE', *, *, #44, .T. ) ;
#28 = CIRCLE ( 'NONE', #284, 1.250000000000000000 ) ;
#29 = CARTESIAN_POINT ( 'NONE',  ( 0.000000000000000000, 0.000000000000000000, 161.2000000000000171 ) ) ;
#30 = ADVANCED_FACE ( 'NONE', ( #122 ), #98, .T. ) ;
#31 = AXIS2_PLACEMENT_3D ( 'NONE', #258, #261, #187 ) ;
#32 = CARTESIAN_POINT ( 'NONE',  ( 0.000000000000000000, 0.000000000000000000, 1.400000000000012346 ) ) ;
#33 = EDGE_LOOP ( 'NONE', ( #293, #303, #202, #56 ) ) ;
#34 = DIRECTION ( 'NONE',  ( 0.000000000000000000, 0.000000000000000000, -1.000000000000000000 ) ) ;
#35 = ORIENTED_EDGE ( 'NONE', *, *, #153, .T. ) ;
#36 = DIRECTION ( 'NONE',  ( -0.000000000000000000, -0.000000000000000000, -1.000000000000000000 ) ) ;
#37 = CIRCLE ( 'NONE', #194, 0.7500000000000000000 ) ;
#38 = LINE ( 'NONE', #177, #22 ) ;
#39 = EDGE_CURVE ( 'NONE', #228, #292, #28, .T. ) ;
#40 = EDGE_LOOP ( 'NONE', ( #227, #99, #297, #252 ) ) ;
#41 = CYLINDRICAL_SURFACE ( 'NONE', #259, 0.5500000000000000444 ) ;
#42 = PERSON_AND_ORGANIZATION_ROLE ( 'design_owner' ) ;
#43 = AXIS2_PLACEMENT_3D ( 'NONE', #231, #274, #174 ) ;
#44 = EDGE_CURVE ( 'NONE', #12, #204, #193, .T. ) ;
#45 = CARTESIAN_POINT ( 'NONE',  ( 1.250000000000000000, 1.530808498934191571E-16, 0.000000000000000000 ) ) ;
#46 = LINE ( 'NONE', #282, #64 ) ;
#47 = CIRCLE ( 'NONE', #1, 1.250000000000000000 ) ;
#48 = APPROVAL_ROLE ( '' ) ;
#49 = COORDINATED_UNIVERSAL_TIME_OFFSET ( 1, 0, .AHEAD. ) ;
#50 = COORDINATED_UNIVERSAL_TIME_OFFSET ( 1, 0, .AHEAD. ) ;
#51 = ORIENTED_EDGE ( 'NONE', *, *, #53, .F. ) ;
#52 = CARTESIAN_POINT ( 'NONE',  ( 0.000000000000000000, 0.000000000000000000, 1.199999999999999956 ) ) ;
#53 = EDGE_CURVE ( 'NONE', #76, #131, #135, .T. ) ;
#54 = DIRECTION ( 'NONE',  ( 1.000000000000000000, 0.000000000000000000, 0.000000000000000000 ) ) ;
#55 = EDGE_LOOP ( 'NONE', ( #230, #294 ) ) ;
#56 = ORIENTED_EDGE ( 'NONE', *, *, #3, .T. ) ;
#57 = AXIS2_PLACEMENT_3D ( 'NONE', #79, #82, #208 ) ;
#58 = DIRECTION ( 'NONE',  ( 1.000000000000000000, 0.000000000000000000, 0.000000000000000000 ) ) ;
#59 = CARTESIAN_POINT ( 'NONE',  ( 0.000000000000000000, 0.000000000000000000, 1.199999999999999956 ) ) ;
#60 = DIRECTION ( 'NONE',  ( -0.000000000000000000, -0.000000000000000000, -1.000000000000000000 ) ) ;
#61 = DIRECTION ( 'NONE',  ( 0.000000000000000000, 0.000000000000000000, 1.000000000000000000 ) ) ;
#62 = AXIS2_PLACEMENT_3D ( 'NONE', #29, #289, #120 ) ;
#63 = ORIENTED_EDGE ( 'NONE', *, *, #224, .T. ) ;
#64 = VECTOR ( 'NONE', #161, 1000.000000000000000 ) ;
#65 = DIRECTION ( 'NONE',  ( 0.000000000000000000, 0.000000000000000000, 1.000000000000000000 ) ) ;
#66 = APPLICATION_PROTOCOL_DEFINITION ( 'international standard', 'config_control_design', 1994, #213 ) ;
#67 = ADVANCED_FACE ( 'NONE', ( #225 ), #275, .T. ) ;
#68 = APPROVAL_ROLE ( '' ) ;
#69 = PERSON_AND_ORGANIZATION ( #16, #115 ) ;
#70 = DIRECTION ( 'NONE',  ( 1.000000000000000000, 0.000000000000000000, 0.000000000000000000 ) ) ;
#71 = ADVANCED_FACE ( 'NONE', ( #268 ), #168, .F. ) ;
#72 = PERSON_AND_ORGANIZATION_ROLE ( 'creator' ) ;
#73 = AXIS2_PLACEMENT_3D ( 'NONE', #52, #96, #179 ) ;
#74 = ORIENTED_EDGE ( 'NONE', *, *, #142, .F. ) ;
#75 = AXIS2_PLACEMENT_3D ( 'NONE', #215, #87, #110 ) ;
#76 = VERTEX_POINT ( 'NONE', #180 ) ;
#77 = CARTESIAN_POINT ( 'NONE',  ( -1.250000000000000000, 0.000000000000000000, 1.199999999999999956 ) ) ;
#78 = ORIENTED_EDGE ( 'NONE', *, *, #119, .T. ) ;
#79 = CARTESIAN_POINT ( 'NONE',  ( 0.000000000000000000, 0.000000000000000000, 0.000000000000000000 ) ) ;
#80 = ORIENTED_EDGE ( 'NONE', *, *, #124, .T. ) ;
#81 = FACE_BOUND ( 'NONE', #175, .T. ) ;
#82 = DIRECTION ( 'NONE',  ( 0.000000000000000000, 0.000000000000000000, 1.000000000000000000 ) ) ;
#83 = EDGE_LOOP ( 'NONE', ( #51, #35, #127, #248 ) ) ;
#84 = FACE_OUTER_BOUND ( 'NONE', #83, .T. ) ;
#85 = ORIENTED_EDGE ( 'NONE', *, *, #191, .F. ) ;
#86 = LOCAL_TIME ( 12, 41, 0.000000000000000000, #49 ) ;
#87 = DIRECTION ( 'NONE',  ( 0.000000000000000000, 0.000000000000000000, 1.000000000000000000 ) ) ;
#88 = DIRECTION ( 'NONE',  ( -0.000000000000000000, -0.000000000000000000, -1.000000000000000000 ) ) ;
#89 =( GEOMETRIC_REPRESENTATION_CONTEXT ( 3 ) GLOBAL_UNCERTAINTY_ASSIGNED_CONTEXT ( ( #283 ) ) GLOBAL_UNIT_ASSIGNED_CONTEXT ( ( #210, #305, #138 ) ) REPRESENTATION_CONTEXT ( 'NONE', 'WORKASPACE' ) );
#90 = EDGE_CURVE ( 'NONE', #182, #197, #219, .T. ) ;
#91 = APPROVAL_DATE_TIME ( #166, #104 ) ;
#92 = CC_DESIGN_DATE_AND_TIME_ASSIGNMENT ( #262, #245, ( #25 ) ) ;
#93 = COORDINATED_UNIVERSAL_TIME_OFFSET ( 1, 0, .AHEAD. ) ;
#94 = DIRECTION ( 'NONE',  ( 1.000000000000000000, 0.000000000000000000, 0.000000000000000000 ) ) ;
#95 = APPLICATION_CONTEXT ( 'configuration controlled 3d designs of mechanical parts and assemblies' ) ;
#96 = DIRECTION ( 'NONE',  ( -0.000000000000000000, -0.000000000000000000, -1.000000000000000000 ) ) ;
#97 = SECURITY_CLASSIFICATION ( '', '', #114 ) ;
#98 = CYLINDRICAL_SURFACE ( 'NONE', #198, 1.250000000000000000 ) ;
#99 = ORIENTED_EDGE ( 'NONE', *, *, #108, .T. ) ;
#100 = DIRECTION ( 'NONE',  ( -0.000000000000000000, -0.000000000000000000, -1.000000000000000000 ) ) ;
#101 = DIRECTION ( 'NONE',  ( 0.000000000000000000, 0.000000000000000000, 1.000000000000000000 ) ) ;
#102 = VERTEX_POINT ( 'NONE', #77 ) ;
#103 = CARTESIAN_POINT ( 'NONE',  ( 0.000000000000000000, 0.000000000000000000, 1.199999999999999956 ) ) ;
#104 = APPROVAL ( #195, 'NEURÈENÝ' ) ;
#105 = CC_DESIGN_APPROVAL ( #163, ( #25 ) ) ;
#106 = CARTESIAN_POINT ( 'NONE',  ( 0.000000000000000000, 0.000000000000000000, 1.400000000000012346 ) ) ;
#107 = FACE_OUTER_BOUND ( 'NONE', #126, .T. ) ;
#108 = EDGE_CURVE ( 'NONE', #197, #12, #296, .T. ) ;
#109 = CARTESIAN_POINT ( 'NONE',  ( 0.000000000000000000, 0.000000000000000000, 161.2000000000000171 ) ) ;
#110 = DIRECTION ( 'NONE',  ( 1.000000000000000000, 0.000000000000000000, 0.000000000000000000 ) ) ;
#111 = PERSON_AND_ORGANIZATION ( #16, #115 ) ;
#112 = ADVANCED_FACE ( 'NONE', ( #81, #156 ), #229, .T. ) ;
#113 = AXIS2_PLACEMENT_3D ( 'NONE', #279, #201, #255 ) ;
#114 = SECURITY_CLASSIFICATION_LEVEL ( 'unclassified' ) ;
#115 = ORGANIZATION ( 'NEURÈENÝ', 'NEURÈENÝ', '' ) ;
#116 = PERSON_AND_ORGANIZATION ( #16, #115 ) ;
#117 = CARTESIAN_POINT ( 'NONE',  ( -0.7500000000000000000, 9.184850993605149670E-17, 1.200000000000006173 ) ) ;
#118 = EDGE_LOOP ( 'NONE', ( #278, #272 ) ) ;
#119 = EDGE_CURVE ( 'NONE', #292, #228, #47, .T. ) ;
#120 = DIRECTION ( 'NONE',  ( 1.000000000000000000, 0.000000000000000000, 0.000000000000000000 ) ) ;
#121 = CARTESIAN_POINT ( 'NONE',  ( 0.000000000000000000, 0.000000000000000000, 1.199999999999999956 ) ) ;
#122 = FACE_OUTER_BOUND ( 'NONE', #14, .T. ) ;
#123 = VERTEX_POINT ( 'NONE', #125 ) ;
#124 = EDGE_CURVE ( 'NONE', #182, #204, #140, .T. ) ;
#125 = CARTESIAN_POINT ( 'NONE',  ( 1.250000000000000000, 1.530808498934191571E-16, 1.199999999999999956 ) ) ;
#126 = EDGE_LOOP ( 'NONE', ( #151, #159 ) ) ;
#127 = ORIENTED_EDGE ( 'NONE', *, *, #90, .T. ) ;
#128 = FACE_OUTER_BOUND ( 'NONE', #173, .T. ) ;
#129 = LOCAL_TIME ( 12, 41, 0.000000000000000000, #190 ) ;
#130 = CARTESIAN_POINT ( 'NONE',  ( 0.5500000000000000444, 6.735557395310442516E-17, 1.400000000000012346 ) ) ;
#131 = VERTEX_POINT ( 'NONE', #302 ) ;
#132 = EDGE_CURVE ( 'NONE', #131, #197, #13, .T. ) ;
#133 = CARTESIAN_POINT ( 'NONE',  ( 0.000000000000000000, 0.000000000000000000, 1.199999999999999956 ) ) ;
#134 = CALENDAR_DATE ( 2022, 7, 7 ) ;
#135 = CIRCLE ( 'NONE', #62, 0.5500000000000000444 ) ;
#136 = CC_DESIGN_SECURITY_CLASSIFICATION ( #97, ( #178 ) ) ;
#137 = CARTESIAN_POINT ( 'NONE',  ( -0.5500000000000000444, 0.000000000000000000, 1.400000000000012346 ) ) ;
#138 =( NAMED_UNIT ( * ) SI_UNIT ( $, .STERADIAN. ) SOLID_ANGLE_UNIT ( ) );
#139 = ADVANCED_BREP_SHAPE_REPRESENTATION ( 'b6cc', ( #5, #75 ), #89 ) ;
#140 = CIRCLE ( 'NONE', #237, 0.2000000000000000944 ) ;
#141 = DATE_TIME_ROLE ( 'classification_date' ) ;
#142 = EDGE_CURVE ( 'NONE', #102, #123, #165, .T. ) ;
#143 = AXIS2_PLACEMENT_3D ( 'NONE', #154, #251, #233 ) ;
#144 = SHAPE_DEFINITION_REPRESENTATION ( #298, #139 ) ;
#145 = LOCAL_TIME ( 12, 41, 0.000000000000000000, #93 ) ;
#146 = ADVANCED_FACE ( 'NONE', ( #84 ), #300, .T. ) ;
#147 = ORIENTED_EDGE ( 'NONE', *, *, #241, .F. ) ;
#148 = PRODUCT ( 'b6cc', 'b6cc', '', ( #256 ) ) ;
#149 = ORIENTED_EDGE ( 'NONE', *, *, #235, .F. ) ;
#150 = CARTESIAN_POINT ( 'NONE',  ( -0.5500000000000000444, 0.000000000000000000, 161.2000000000000171 ) ) ;
#151 = ORIENTED_EDGE ( 'NONE', *, *, #119, .F. ) ;
#152 = ORIENTED_EDGE ( 'NONE', *, *, #44, .F. ) ;
#153 = EDGE_CURVE ( 'NONE', #76, #182, #38, .T. ) ;
#154 = CARTESIAN_POINT ( 'NONE',  ( -0.7500000000000000000, 9.184850993605149670E-17, 1.400000000000012346 ) ) ;
#155 = DIRECTION ( 'NONE',  ( -0.000000000000000000, -0.000000000000000000, -1.000000000000000000 ) ) ;
#156 = FACE_OUTER_BOUND ( 'NONE', #55, .T. ) ;
#157 = CARTESIAN_POINT ( 'NONE',  ( 0.000000000000000000, 0.000000000000000000, 161.2000000000000171 ) ) ;
#158 = ADVANCED_FACE ( 'NONE', ( #128 ), #246, .F. ) ;
#159 = ORIENTED_EDGE ( 'NONE', *, *, #39, .F. ) ;
#160 = APPROVAL_PERSON_ORGANIZATION ( #267, #21, #48 ) ;
#161 = DIRECTION ( 'NONE',  ( -0.000000000000000000, -0.000000000000000000, -1.000000000000000000 ) ) ;
#162 = CC_DESIGN_PERSON_AND_ORGANIZATION_ASSIGNMENT ( #69, #42, ( #148 ) ) ;
#163 = APPROVAL ( #307, 'NEURÈENÝ' ) ;
#164 = AXIS2_PLACEMENT_3D ( 'NONE', #32, #101, #94 ) ;
#165 = CIRCLE ( 'NONE', #273, 1.250000000000000000 ) ;
#166 = DATE_AND_TIME ( #217, #86 ) ;
#167 = CALENDAR_DATE ( 2022, 7, 7 ) ;
#168 = TOROIDAL_SURFACE ( 'NONE', #43, 0.7500000000000000000, 0.2000000000000000111 ) ;
#169 = APPROVAL_ROLE ( '' ) ;
#170 = ADVANCED_FACE ( 'NONE', ( #107 ), #15, .F. ) ;
#171 = AXIS2_PLACEMENT_3D ( 'NONE', #270, #60, #249 ) ;
#172 = CARTESIAN_POINT ( 'NONE',  ( 0.000000000000000000, 0.000000000000000000, 0.000000000000000000 ) ) ;
#173 = EDGE_LOOP ( 'NONE', ( #250, #200, #80, #152 ) ) ;
#174 = DIRECTION ( 'NONE',  ( 1.000000000000000000, 0.000000000000000000, 0.000000000000000000 ) ) ;
#175 = EDGE_LOOP ( 'NONE', ( #63, #27 ) ) ;
#176 = AXIS2_PLACEMENT_3D ( 'NONE', #59, #155, #9 ) ;
#177 = CARTESIAN_POINT ( 'NONE',  ( 0.5500000000000000444, 6.735557395310442516E-17, 161.2000000000000171 ) ) ;
#178 = PRODUCT_DEFINITION_FORMATION_WITH_SPECIFIED_SOURCE ( 'LIBOVOLNÝ', '', #148, .NOT_KNOWN. ) ;
#179 = DIRECTION ( 'NONE',  ( 1.000000000000000000, 0.000000000000000000, 0.000000000000000000 ) ) ;
#180 = CARTESIAN_POINT ( 'NONE',  ( 0.5500000000000000444, 6.735557395310442516E-17, 161.2000000000000171 ) ) ;
#181 = DIRECTION ( 'NONE',  ( 0.000000000000000000, 0.000000000000000000, 1.000000000000000000 ) ) ;
#182 = VERTEX_POINT ( 'NONE', #130 ) ;
#183 = ADVANCED_FACE ( 'NONE', ( #203 ), #277, .T. ) ;
#184 = DIRECTION ( 'NONE',  ( 1.000000000000000000, 0.000000000000000000, -0.000000000000000000 ) ) ;
#185 = APPROVAL_PERSON_ORGANIZATION ( #111, #163, #68 ) ;
#186 = DIRECTION ( 'NONE',  ( -0.000000000000000000, -0.000000000000000000, -1.000000000000000000 ) ) ;
#187 = DIRECTION ( 'NONE',  ( 1.000000000000000000, 0.000000000000000000, 0.000000000000000000 ) ) ;
#188 = PRODUCT_RELATED_PRODUCT_CATEGORY ( 'detail', '', ( #148 ) ) ;
#189 = AXIS2_PLACEMENT_3D ( 'NONE', #121, #181, #295 ) ;
#190 = COORDINATED_UNIVERSAL_TIME_OFFSET ( 1, 0, .AHEAD. ) ;
#191 = EDGE_CURVE ( 'NONE', #123, #102, #19, .T. ) ;
#192 = PERSON_AND_ORGANIZATION_ROLE ( 'creator' ) ;
#193 = CIRCLE ( 'NONE', #73, 0.7500000000000000000 ) ;
#194 = AXIS2_PLACEMENT_3D ( 'NONE', #133, #214, #70 ) ;
#195 = APPROVAL_STATUS ( 'not_yet_approved' ) ;
#196 = PERSON_AND_ORGANIZATION_ROLE ( 'classification_officer' ) ;
#197 = VERTEX_POINT ( 'NONE', #137 ) ;
#198 = AXIS2_PLACEMENT_3D ( 'NONE', #269, #11, #222 ) ;
#199 = AXIS2_PLACEMENT_3D ( 'NONE', #301, #226, #10 ) ;
#200 = ORIENTED_EDGE ( 'NONE', *, *, #90, .F. ) ;
#201 = DIRECTION ( 'NONE',  ( 0.000000000000000000, 0.000000000000000000, 1.000000000000000000 ) ) ;
#202 = ORIENTED_EDGE ( 'NONE', *, *, #132, .T. ) ;
#203 = FACE_OUTER_BOUND ( 'NONE', #118, .T. ) ;
#204 = VERTEX_POINT ( 'NONE', #240 ) ;
#205 = DIRECTION ( 'NONE',  ( 0.000000000000000000, 0.000000000000000000, 1.000000000000000000 ) ) ;
#206 = LOCAL_TIME ( 12, 41, 0.000000000000000000, #50 ) ;
#207 = CARTESIAN_POINT ( 'NONE',  ( 0.000000000000000000, 0.000000000000000000, 0.000000000000000000 ) ) ;
#208 = DIRECTION ( 'NONE',  ( 1.000000000000000000, 0.000000000000000000, -0.000000000000000000 ) ) ;
#209 = ORIENTED_EDGE ( 'NONE', *, *, #39, .T. ) ;
#210 =( LENGTH_UNIT ( ) NAMED_UNIT ( * ) SI_UNIT ( .MILLI., .METRE. ) );
#211 = CARTESIAN_POINT ( 'NONE',  ( -1.250000000000000000, 0.000000000000000000, 0.000000000000000000 ) ) ;
#212 = EDGE_CURVE ( 'NONE', #131, #76, #232, .T. ) ;
#213 = APPLICATION_CONTEXT ( 'configuration controlled 3d designs of mechanical parts and assemblies' ) ;
#214 = DIRECTION ( 'NONE',  ( -0.000000000000000000, -0.000000000000000000, -1.000000000000000000 ) ) ;
#215 = CARTESIAN_POINT ( 'NONE',  ( 0.000000000000000000, 0.000000000000000000, 0.000000000000000000 ) ) ;
#216 = VECTOR ( 'NONE', #186, 1000.000000000000000 ) ;
#217 = CALENDAR_DATE ( 2022, 7, 7 ) ;
#218 = COORDINATED_UNIVERSAL_TIME_OFFSET ( 1, 0, .AHEAD. ) ;
#219 = CIRCLE ( 'NONE', #257, 0.5500000000000000444 ) ;
#220 = PERSON_AND_ORGANIZATION_ROLE ( 'design_supplier' ) ;
#221 = APPROVAL_DATE_TIME ( #4, #21 ) ;
#222 = DIRECTION ( 'NONE',  ( -1.000000000000000000, 0.000000000000000000, 0.000000000000000000 ) ) ;
#223 = ORIENTED_EDGE ( 'NONE', *, *, #241, .T. ) ;
#224 = EDGE_CURVE ( 'NONE', #204, #12, #37, .T. ) ;
#225 = FACE_OUTER_BOUND ( 'NONE', #26, .T. ) ;
#226 = DIRECTION ( 'NONE',  ( 0.000000000000000000, 0.000000000000000000, 1.000000000000000000 ) ) ;
#227 = ORIENTED_EDGE ( 'NONE', *, *, #3, .F. ) ;
#228 = VERTEX_POINT ( 'NONE', #45 ) ;
#229 = PLANE ( 'NONE',  #189 ) ;
#230 = ORIENTED_EDGE ( 'NONE', *, *, #142, .T. ) ;
#231 = CARTESIAN_POINT ( 'NONE',  ( 0.000000000000000000, 0.000000000000000000, 1.400000000000012346 ) ) ;
#232 = CIRCLE ( 'NONE', #31, 0.5500000000000000444 ) ;
#233 = DIRECTION ( 'NONE',  ( -1.000000000000000000, 1.224646799147353454E-16, 0.000000000000000000 ) ) ;
#234 = FACE_OUTER_BOUND ( 'NONE', #33, .T. ) ;
#235 = EDGE_CURVE ( 'NONE', #102, #292, #238, .T. ) ;
#236 = DATE_AND_TIME ( #134, #129 ) ;
#237 = AXIS2_PLACEMENT_3D ( 'NONE', #17, #253, #34 ) ;
#238 = LINE ( 'NONE', #18, #216 ) ;
#239 = DIRECTION ( 'NONE',  ( -1.000000000000000000, 0.000000000000000000, 0.000000000000000000 ) ) ;
#240 = CARTESIAN_POINT ( 'NONE',  ( 0.7500000000000000000, 0.000000000000000000, 1.200000000000006173 ) ) ;
#241 = EDGE_CURVE ( 'NONE', #123, #228, #46, .T. ) ;
#242 = AXIS2_PLACEMENT_3D ( 'NONE', #157, #254, #184 ) ;
#243 = PERSON_AND_ORGANIZATION ( #16, #115 ) ;
#244 = CC_DESIGN_DATE_AND_TIME_ASSIGNMENT ( #6, #141, ( #97 ) ) ;
#245 = DATE_TIME_ROLE ( 'creation_date' ) ;
#246 = TOROIDAL_SURFACE ( 'NONE', #199, 0.7500000000000000000, 0.2000000000000000111 ) ;
#247 = ORIENTED_EDGE ( 'NONE', *, *, #235, .T. ) ;
#248 = ORIENTED_EDGE ( 'NONE', *, *, #132, .F. ) ;
#249 = DIRECTION ( 'NONE',  ( -1.000000000000000000, 0.000000000000000000, 0.000000000000000000 ) ) ;
#250 = ORIENTED_EDGE ( 'NONE', *, *, #108, .F. ) ;
#251 = DIRECTION ( 'NONE',  ( 1.224646799147353207E-16, 1.000000000000000000, -0.000000000000000000 ) ) ;
#252 = ORIENTED_EDGE ( 'NONE', *, *, #124, .F. ) ;
#253 = DIRECTION ( 'NONE',  ( 0.000000000000000000, -1.000000000000000000, 0.000000000000000000 ) ) ;
#254 = DIRECTION ( 'NONE',  ( 0.000000000000000000, 0.000000000000000000, 1.000000000000000000 ) ) ;
#255 = DIRECTION ( 'NONE',  ( 1.000000000000000000, 0.000000000000000000, 0.000000000000000000 ) ) ;
#256 = MECHANICAL_CONTEXT ( 'NONE', #213, 'mechanical' ) ;
#257 = AXIS2_PLACEMENT_3D ( 'NONE', #106, #61, #54 ) ;
#258 = CARTESIAN_POINT ( 'NONE',  ( 0.000000000000000000, 0.000000000000000000, 161.2000000000000171 ) ) ;
#259 = AXIS2_PLACEMENT_3D ( 'NONE', #109, #88, #239 ) ;
#260 = APPLICATION_PROTOCOL_DEFINITION ( 'international standard', 'config_control_design', 1994, #95 ) ;
#261 = DIRECTION ( 'NONE',  ( 0.000000000000000000, 0.000000000000000000, 1.000000000000000000 ) ) ;
#262 = DATE_AND_TIME ( #264, #290 ) ;
#263 = CC_DESIGN_APPROVAL ( #104, ( #97 ) ) ;
#264 = CALENDAR_DATE ( 2022, 7, 7 ) ;
#265 = CC_DESIGN_PERSON_AND_ORGANIZATION_ASSIGNMENT ( #243, #72, ( #25 ) ) ;
#266 = APPROVAL_STATUS ( 'not_yet_approved' ) ;
#267 = PERSON_AND_ORGANIZATION ( #16, #115 ) ;
#268 = FACE_OUTER_BOUND ( 'NONE', #40, .T. ) ;
#269 = CARTESIAN_POINT ( 'NONE',  ( 0.000000000000000000, 0.000000000000000000, 1.199999999999999956 ) ) ;
#270 = CARTESIAN_POINT ( 'NONE',  ( 0.000000000000000000, 0.000000000000000000, 161.2000000000000171 ) ) ;
#271 = DIRECTION ( 'NONE',  ( 1.000000000000000000, 0.000000000000000000, 0.000000000000000000 ) ) ;
#272 = ORIENTED_EDGE ( 'NONE', *, *, #53, .T. ) ;
#273 = AXIS2_PLACEMENT_3D ( 'NONE', #103, #205, #276 ) ;
#274 = DIRECTION ( 'NONE',  ( 0.000000000000000000, 0.000000000000000000, 1.000000000000000000 ) ) ;
#275 = CYLINDRICAL_SURFACE ( 'NONE', #176, 1.250000000000000000 ) ;
#276 = DIRECTION ( 'NONE',  ( 1.000000000000000000, 0.000000000000000000, 0.000000000000000000 ) ) ;
#277 = PLANE ( 'NONE',  #242 ) ;
#278 = ORIENTED_EDGE ( 'NONE', *, *, #212, .T. ) ;
#279 = CARTESIAN_POINT ( 'NONE',  ( 0.000000000000000000, 0.000000000000000000, 1.199999999999999956 ) ) ;
#280 = CC_DESIGN_PERSON_AND_ORGANIZATION_ASSIGNMENT ( #286, #196, ( #97 ) ) ;
#281 = CC_DESIGN_APPROVAL ( #21, ( #178 ) ) ;
#282 = CARTESIAN_POINT ( 'NONE',  ( 1.250000000000000000, 1.530808498934191571E-16, 1.199999999999999956 ) ) ;
#283 = UNCERTAINTY_MEASURE_WITH_UNIT (LENGTH_MEASURE( 1.000000000000000082E-05 ), #210, 'distance_accuracy_value', 'NONE');
#284 = AXIS2_PLACEMENT_3D ( 'NONE', #172, #7, #271 ) ;
#285 = APPROVAL_DATE_TIME ( #236, #163 ) ;
#286 = PERSON_AND_ORGANIZATION ( #16, #115 ) ;
#287 = CIRCLE ( 'NONE', #164, 0.5500000000000000444 ) ;
#288 = PERSON_AND_ORGANIZATION ( #16, #115 ) ;
#289 = DIRECTION ( 'NONE',  ( 0.000000000000000000, 0.000000000000000000, 1.000000000000000000 ) ) ;
#290 = LOCAL_TIME ( 12, 41, 0.000000000000000000, #218 ) ;
#291 = ADVANCED_FACE ( 'NONE', ( #234 ), #41, .T. ) ;
#292 = VERTEX_POINT ( 'NONE', #211 ) ;
#293 = ORIENTED_EDGE ( 'NONE', *, *, #153, .F. ) ;
#294 = ORIENTED_EDGE ( 'NONE', *, *, #191, .T. ) ;
#295 = DIRECTION ( 'NONE',  ( 1.000000000000000000, 0.000000000000000000, -0.000000000000000000 ) ) ;
#296 = CIRCLE ( 'NONE', #143, 0.1999999999999999833 ) ;
#297 = ORIENTED_EDGE ( 'NONE', *, *, #224, .F. ) ;
#298 = PRODUCT_DEFINITION_SHAPE ( 'NONE', 'NONE',  #25 ) ;
#299 = VECTOR ( 'NONE', #100, 1000.000000000000000 ) ;
#300 = CYLINDRICAL_SURFACE ( 'NONE', #171, 0.5500000000000000444 ) ;
#301 = CARTESIAN_POINT ( 'NONE',  ( 0.000000000000000000, 0.000000000000000000, 1.400000000000012346 ) ) ;
#302 = CARTESIAN_POINT ( 'NONE',  ( -0.5500000000000000444, 0.000000000000000000, 161.2000000000000171 ) ) ;
#303 = ORIENTED_EDGE ( 'NONE', *, *, #212, .F. ) ;
#304 = CLOSED_SHELL ( 'NONE', ( #71, #146, #67, #30, #112, #170, #291, #183, #158 ) ) ;
#305 =( NAMED_UNIT ( * ) PLANE_ANGLE_UNIT ( ) SI_UNIT ( $, .RADIAN. ) );
#306 = CC_DESIGN_PERSON_AND_ORGANIZATION_ASSIGNMENT ( #116, #220, ( #178 ) ) ;
#307 = APPROVAL_STATUS ( 'not_yet_approved' ) ;
ENDSEC;
END-ISO-10303-21;
