ISO-10303-21;
HEADER;
FILE_DESCRIPTION (( 'STEP AP203' ),
    '1' );
FILE_NAME ('0298.STEP',
    '2022-07-07T09:41:20',
    ( '' ),
    ( '' ),
    'SwSTEP 2.0',
    'SolidWorks 2019',
    '' );
FILE_SCHEMA (( 'CONFIG_CONTROL_DESIGN' ));
ENDSEC;

DATA;
#1 = CARTESIAN_POINT ( 'NONE',  ( 0.000000000000000000, 0.000000000000000000, 7.200000000000011724 ) ) ;
#2 = ADVANCED_FACE ( 'NONE', ( #116 ), #176, .F. ) ;
#3 = PRODUCT ( '0298', '0298', '', ( #4 ) ) ;
#4 = MECHANICAL_CONTEXT ( 'NONE', #289, 'mechanical' ) ;
#5 = DATE_AND_TIME ( #60, #245 ) ;
#6 = PERSON_AND_ORGANIZATION_ROLE ( 'design_owner' ) ;
#7 = ORIENTED_EDGE ( 'NONE', *, *, #131, .F. ) ;
#8 = DIRECTION ( 'NONE',  ( 0.000000000000000000, 0.000000000000000000, 1.000000000000000000 ) ) ;
#9 = PERSON_AND_ORGANIZATION_ROLE ( 'creator' ) ;
#10 = COORDINATED_UNIVERSAL_TIME_OFFSET ( 1, 0, .AHEAD. ) ;
#11 = CIRCLE ( 'NONE', #90, 0.1999999999999996503 ) ;
#12 = ADVANCED_FACE ( 'NONE', ( #92 ), #63, .T. ) ;
#13 = ORIENTED_EDGE ( 'NONE', *, *, #75, .T. ) ;
#14 = ORIENTED_EDGE ( 'NONE', *, *, #298, .F. ) ;
#15 = ADVANCED_FACE ( 'NONE', ( #189 ), #283, .T. ) ;
#16 = PERSON ( 'NEURÈENÝ', 'NEURÈENÝ', 'NEURÈENÝ', ('NEURÈENÝ'), ('NEURÈENÝ'), ('NEURÈENÝ') ) ;
#17 = ORIENTED_EDGE ( 'NONE', *, *, #65, .T. ) ;
#18 = VECTOR ( 'NONE', #72, 1000.000000000000000 ) ;
#19 = PRODUCT_DEFINITION_FORMATION_WITH_SPECIFIED_SOURCE ( 'LIBOVOLNÝ', '', #3, .NOT_KNOWN. ) ;
#20 = ORIENTED_EDGE ( 'NONE', *, *, #126, .T. ) ;
#21 = CARTESIAN_POINT ( 'NONE',  ( 0.000000000000000000, 0.000000000000000000, 167.0000000000000000 ) ) ;
#22 = CARTESIAN_POINT ( 'NONE',  ( 0.000000000000000000, 0.000000000000000000, 7.000000000000000000 ) ) ;
#23 = ADVANCED_FACE ( 'NONE', ( #39 ), #118, .F. ) ;
#24 = DIRECTION ( 'NONE',  ( 1.000000000000000000, 0.000000000000000000, 0.000000000000000000 ) ) ;
#25 = AXIS2_PLACEMENT_3D ( 'NONE', #22, #193, #191 ) ;
#26 = DIRECTION ( 'NONE',  ( -0.000000000000000000, -0.000000000000000000, -1.000000000000000000 ) ) ;
#27 = ORIENTED_EDGE ( 'NONE', *, *, #138, .T. ) ;
#28 = ADVANCED_FACE ( 'NONE', ( #186 ), #209, .F. ) ;
#29 = PRODUCT_DEFINITION_SHAPE ( 'NONE', 'NONE',  #70 ) ;
#30 = FACE_OUTER_BOUND ( 'NONE', #130, .T. ) ;
#31 = ORIENTED_EDGE ( 'NONE', *, *, #174, .F. ) ;
#32 = DIRECTION ( 'NONE',  ( -0.000000000000000000, -0.000000000000000000, -1.000000000000000000 ) ) ;
#33 = CARTESIAN_POINT ( 'NONE',  ( 7.000000000000000888, 8.572527594031474176E-16, 167.0000000000000000 ) ) ;
#34 = ORIENTED_EDGE ( 'NONE', *, *, #108, .T. ) ;
#35 = AXIS2_PLACEMENT_3D ( 'NONE', #164, #45, #142 ) ;
#36 = APPROVAL_DATE_TIME ( #274, #270 ) ;
#37 = DATE_AND_TIME ( #252, #220 ) ;
#38 = APPROVAL_DATE_TIME ( #160, #217 ) ;
#39 = FACE_OUTER_BOUND ( 'NONE', #259, .T. ) ;
#40 = EDGE_LOOP ( 'NONE', ( #114, #14, #234, #180 ) ) ;
#41 = CC_DESIGN_PERSON_AND_ORGANIZATION_ASSIGNMENT ( #109, #128, ( #19 ) ) ;
#42 = DIRECTION ( 'NONE',  ( 1.000000000000000000, 0.000000000000000000, 0.000000000000000000 ) ) ;
#43 = AXIS2_PLACEMENT_3D ( 'NONE', #173, #47, #290 ) ;
#44 = ORGANIZATION ( 'NEURÈENÝ', 'NEURÈENÝ', '' ) ;
#45 = DIRECTION ( 'NONE',  ( 0.000000000000000000, 0.000000000000000000, 1.000000000000000000 ) ) ;
#46 = CARTESIAN_POINT ( 'NONE',  ( -7.000000000000000888, 0.000000000000000000, 167.0000000000000000 ) ) ;
#47 = DIRECTION ( 'NONE',  ( 0.000000000000000000, 0.000000000000000000, 1.000000000000000000 ) ) ;
#48 = AXIS2_PLACEMENT_3D ( 'NONE', #165, #284, #261 ) ;
#49 = CARTESIAN_POINT ( 'NONE',  ( 0.000000000000000000, 0.000000000000000000, 7.000000000000000000 ) ) ;
#50 = AXIS2_PLACEMENT_3D ( 'NONE', #285, #292, #264 ) ;
#51 = ADVANCED_FACE ( 'NONE', ( #58, #231 ), #140, .T. ) ;
#52 = CARTESIAN_POINT ( 'NONE',  ( -11.00000000000000000, 0.000000000000000000, 7.000000000000000000 ) ) ;
#53 = CARTESIAN_POINT ( 'NONE',  ( 0.000000000000000000, 0.000000000000000000, 7.000000000000000000 ) ) ;
#54 = EDGE_LOOP ( 'NONE', ( #133, #171, #20, #282 ) ) ;
#55 = AXIS2_PLACEMENT_3D ( 'NONE', #144, #148, #97 ) ;
#56 = CARTESIAN_POINT ( 'NONE',  ( 0.000000000000000000, 0.000000000000000000, 7.200000000000011724 ) ) ;
#57 = EDGE_CURVE ( 'NONE', #199, #295, #136, .T. ) ;
#58 = FACE_BOUND ( 'NONE', #93, .T. ) ;
#59 = APPROVAL_ROLE ( '' ) ;
#60 = CALENDAR_DATE ( 2022, 7, 7 ) ;
#61 = PERSON_AND_ORGANIZATION ( #16, #44 ) ;
#62 = AXIS2_PLACEMENT_3D ( 'NONE', #302, #301, #257 ) ;
#63 = PLANE ( 'NONE',  #182 ) ;
#64 = CC_DESIGN_SECURITY_CLASSIFICATION ( #71, ( #19 ) ) ;
#65 = EDGE_CURVE ( 'NONE', #230, #199, #233, .T. ) ;
#66 = VERTEX_POINT ( 'NONE', #170 ) ;
#67 = ORIENTED_EDGE ( 'NONE', *, *, #57, .T. ) ;
#68 = VERTEX_POINT ( 'NONE', #121 ) ;
#69 = AXIS2_PLACEMENT_3D ( 'NONE', #124, #287, #24 ) ;
#70 = PRODUCT_DEFINITION ( 'NEZNÁMÝ', '', #19, #238 ) ;
#71 = SECURITY_CLASSIFICATION ( '', '', #297 ) ;
#72 = DIRECTION ( 'NONE',  ( -0.000000000000000000, -0.000000000000000000, -1.000000000000000000 ) ) ;
#73 = CARTESIAN_POINT ( 'NONE',  ( -7.200000000000001066, 8.817456953860944275E-16, 7.000000000000006217 ) ) ;
#74 = CARTESIAN_POINT ( 'NONE',  ( 0.000000000000000000, 0.000000000000000000, 167.0000000000000000 ) ) ;
#75 = EDGE_CURVE ( 'NONE', #137, #66, #276, .T. ) ;
#76 = LINE ( 'NONE', #52, #253 ) ;
#77 = LOCAL_TIME ( 11, 41, 20.00000000000000000, #181 ) ;
#78 = PRODUCT_RELATED_PRODUCT_CATEGORY ( 'detail', '', ( #3 ) ) ;
#79 = DIRECTION ( 'NONE',  ( -0.000000000000000000, -0.000000000000000000, -1.000000000000000000 ) ) ;
#80 = COORDINATED_UNIVERSAL_TIME_OFFSET ( 1, 0, .AHEAD. ) ;
#81 = ORIENTED_EDGE ( 'NONE', *, *, #113, .F. ) ;
#82 = EDGE_CURVE ( 'NONE', #123, #68, #307, .T. ) ;
#83 = APPLICATION_PROTOCOL_DEFINITION ( 'international standard', 'config_control_design', 1994, #289 ) ;
#84 = AXIS2_PLACEMENT_3D ( 'NONE', #53, #266, #149 ) ;
#85 = CARTESIAN_POINT ( 'NONE',  ( 0.000000000000000000, 0.000000000000000000, 7.000000000000000000 ) ) ;
#86 = CARTESIAN_POINT ( 'NONE',  ( -11.00000000000000000, 0.000000000000000000, 0.000000000000000000 ) ) ;
#87 = CIRCLE ( 'NONE', #150, 11.00000000000000000 ) ;
#88 = PERSON_AND_ORGANIZATION ( #16, #44 ) ;
#89 = CC_DESIGN_DATE_AND_TIME_ASSIGNMENT ( #5, #185, ( #71 ) ) ;
#90 = AXIS2_PLACEMENT_3D ( 'NONE', #286, #243, #197 ) ;
#91 = APPROVAL_ROLE ( '' ) ;
#92 = FACE_OUTER_BOUND ( 'NONE', #161, .T. ) ;
#93 = EDGE_LOOP ( 'NONE', ( #271, #294 ) ) ;
#94 = APPROVAL_PERSON_ORGANIZATION ( #153, #270, #59 ) ;
#95 = DIRECTION ( 'NONE',  ( 1.000000000000000000, 0.000000000000000000, -0.000000000000000000 ) ) ;
#96 = ORIENTED_EDGE ( 'NONE', *, *, #126, .F. ) ;
#97 = DIRECTION ( 'NONE',  ( -1.000000000000000000, 0.000000000000000000, 0.000000000000000000 ) ) ;
#98 = DIRECTION ( 'NONE',  ( 1.000000000000000000, 0.000000000000000000, 0.000000000000000000 ) ) ;
#99 = DIRECTION ( 'NONE',  ( 1.224646799147353207E-16, 1.000000000000000000, -0.000000000000000000 ) ) ;
#100 = FACE_OUTER_BOUND ( 'NONE', #240, .T. ) ;
#101 = CARTESIAN_POINT ( 'NONE',  ( 0.000000000000000000, 0.000000000000000000, 0.000000000000000000 ) ) ;
#102 = ORIENTED_EDGE ( 'NONE', *, *, #179, .T. ) ;
#103 = APPLICATION_PROTOCOL_DEFINITION ( 'international standard', 'config_control_design', 1994, #206 ) ;
#104 = APPROVAL ( #157, 'NEURÈENÝ' ) ;
#105 = CARTESIAN_POINT ( 'NONE',  ( 11.00000000000000000, 1.347111479062088405E-15, 0.000000000000000000 ) ) ;
#106 = DIRECTION ( 'NONE',  ( 0.000000000000000000, 0.000000000000000000, 1.000000000000000000 ) ) ;
#107 = CIRCLE ( 'NONE', #184, 7.000000000000000888 ) ;
#108 = EDGE_CURVE ( 'NONE', #299, #295, #87, .T. ) ;
#109 = PERSON_AND_ORGANIZATION ( #16, #44 ) ;
#110 = CLOSED_SHELL ( 'NONE', ( #2, #15, #154, #256, #51, #23, #192, #12, #28 ) ) ;
#111 = APPROVAL_STATUS ( 'not_yet_approved' ) ;
#112 = ORIENTED_EDGE ( 'NONE', *, *, #174, .T. ) ;
#113 = EDGE_CURVE ( 'NONE', #68, #207, #11, .T. ) ;
#114 = ORIENTED_EDGE ( 'NONE', *, *, #138, .F. ) ;
#115 = MANIFOLD_SOLID_BREP ( 'Zaoblit1', #110 ) ;
#116 = FACE_OUTER_BOUND ( 'NONE', #117, .T. ) ;
#117 = EDGE_LOOP ( 'NONE', ( #187, #27, #7, #81 ) ) ;
#118 = PLANE ( 'NONE',  #35 ) ;
#119 = FACE_OUTER_BOUND ( 'NONE', #54, .T. ) ;
#120 = CIRCLE ( 'NONE', #50, 11.00000000000000000 ) ;
#121 = CARTESIAN_POINT ( 'NONE',  ( 7.000000000000000888, 8.572527594031474176E-16, 7.200000000000011724 ) ) ;
#122 = DIRECTION ( 'NONE',  ( 1.000000000000000000, 0.000000000000000000, 0.000000000000000000 ) ) ;
#123 = VERTEX_POINT ( 'NONE', #236 ) ;
#124 = CARTESIAN_POINT ( 'NONE',  ( 0.000000000000000000, 0.000000000000000000, 7.000000000000000000 ) ) ;
#125 =( NAMED_UNIT ( * ) PLANE_ANGLE_UNIT ( ) SI_UNIT ( $, .RADIAN. ) );
#126 = EDGE_CURVE ( 'NONE', #66, #123, #268, .T. ) ;
#127 = CIRCLE ( 'NONE', #84, 7.200000000000001066 ) ;
#128 = PERSON_AND_ORGANIZATION_ROLE ( 'design_supplier' ) ;
#129 =( LENGTH_UNIT ( ) NAMED_UNIT ( * ) SI_UNIT ( .MILLI., .METRE. ) );
#130 = EDGE_LOOP ( 'NONE', ( #31, #67, #269, #155 ) ) ;
#131 = EDGE_CURVE ( 'NONE', #207, #208, #127, .T. ) ;
#132 = CC_DESIGN_APPROVAL ( #270, ( #70 ) ) ;
#133 = ORIENTED_EDGE ( 'NONE', *, *, #279, .F. ) ;
#134 = DIRECTION ( 'NONE',  ( 1.000000000000000000, 0.000000000000000000, 0.000000000000000000 ) ) ;
#135 = SHAPE_DEFINITION_REPRESENTATION ( #29, #167 ) ;
#136 = LINE ( 'NONE', #280, #18 ) ;
#137 = VERTEX_POINT ( 'NONE', #218 ) ;
#138 = EDGE_CURVE ( 'NONE', #123, #208, #255, .T. ) ;
#139 = AXIS2_PLACEMENT_3D ( 'NONE', #1, #216, #241 ) ;
#140 = PLANE ( 'NONE',  #288 ) ;
#141 = VECTOR ( 'NONE', #32, 1000.000000000000000 ) ;
#142 = DIRECTION ( 'NONE',  ( 1.000000000000000000, 0.000000000000000000, -0.000000000000000000 ) ) ;
#143 = DIRECTION ( 'NONE',  ( -1.000000000000000000, 0.000000000000000000, 0.000000000000000000 ) ) ;
#144 = CARTESIAN_POINT ( 'NONE',  ( 0.000000000000000000, 0.000000000000000000, 7.000000000000000000 ) ) ;
#145 = CC_DESIGN_PERSON_AND_ORGANIZATION_ASSIGNMENT ( #228, #9, ( #19 ) ) ;
#146 = AXIS2_PLACEMENT_3D ( 'NONE', #56, #8, #134 ) ;
#147 = DIRECTION ( 'NONE',  ( 0.000000000000000000, 0.000000000000000000, 1.000000000000000000 ) ) ;
#148 = DIRECTION ( 'NONE',  ( -0.000000000000000000, -0.000000000000000000, -1.000000000000000000 ) ) ;
#149 = DIRECTION ( 'NONE',  ( 1.000000000000000000, 0.000000000000000000, 0.000000000000000000 ) ) ;
#150 = AXIS2_PLACEMENT_3D ( 'NONE', #101, #263, #166 ) ;
#151 = EDGE_LOOP ( 'NONE', ( #225, #212, #267, #96 ) ) ;
#152 = PERSON_AND_ORGANIZATION ( #16, #44 ) ;
#153 = PERSON_AND_ORGANIZATION ( #16, #44 ) ;
#154 = ADVANCED_FACE ( 'NONE', ( #30 ), #215, .T. ) ;
#155 = ORIENTED_EDGE ( 'NONE', *, *, #179, .F. ) ;
#156 = DIRECTION ( 'NONE',  ( 0.000000000000000000, 0.000000000000000000, 1.000000000000000000 ) ) ;
#157 = APPROVAL_STATUS ( 'not_yet_approved' ) ;
#158 = LOCAL_TIME ( 11, 41, 20.00000000000000000, #248 ) ;
#159 = APPROVAL_PERSON_ORGANIZATION ( #61, #217, #91 ) ;
#160 = DATE_AND_TIME ( #278, #188 ) ;
#161 = EDGE_LOOP ( 'NONE', ( #232, #13 ) ) ;
#162 = EDGE_LOOP ( 'NONE', ( #17, #112 ) ) ;
#163 = EDGE_CURVE ( 'NONE', #295, #299, #202, .T. ) ;
#164 = CARTESIAN_POINT ( 'NONE',  ( 0.000000000000000000, 0.000000000000000000, 0.000000000000000000 ) ) ;
#165 = CARTESIAN_POINT ( 'NONE',  ( 0.000000000000000000, 0.000000000000000000, 167.0000000000000000 ) ) ;
#166 = DIRECTION ( 'NONE',  ( 1.000000000000000000, 0.000000000000000000, 0.000000000000000000 ) ) ;
#167 = ADVANCED_BREP_SHAPE_REPRESENTATION ( '0298', ( #115, #272 ), #244 ) ;
#168 = CYLINDRICAL_SURFACE ( 'NONE', #55, 11.00000000000000000 ) ;
#169 = UNCERTAINTY_MEASURE_WITH_UNIT (LENGTH_MEASURE( 1.000000000000000082E-05 ), #129, 'distance_accuracy_value', 'NONE');
#170 = CARTESIAN_POINT ( 'NONE',  ( -7.000000000000000888, 0.000000000000000000, 167.0000000000000000 ) ) ;
#171 = ORIENTED_EDGE ( 'NONE', *, *, #235, .F. ) ;
#172 = CIRCLE ( 'NONE', #291, 7.200000000000001066 ) ;
#173 = CARTESIAN_POINT ( 'NONE',  ( 0.000000000000000000, 0.000000000000000000, 167.0000000000000000 ) ) ;
#174 = EDGE_CURVE ( 'NONE', #199, #230, #120, .T. ) ;
#175 = DIRECTION ( 'NONE',  ( -1.000000000000000000, 1.224646799147358384E-16, 0.000000000000000000 ) ) ;
#176 = TOROIDAL_SURFACE ( 'NONE', #62, 7.200000000000001066, 0.2000000000000000111 ) ;
#177 =( NAMED_UNIT ( * ) SI_UNIT ( $, .STERADIAN. ) SOLID_ANGLE_UNIT ( ) );
#178 = CALENDAR_DATE ( 2022, 7, 7 ) ;
#179 = EDGE_CURVE ( 'NONE', #230, #299, #76, .T. ) ;
#180 = ORIENTED_EDGE ( 'NONE', *, *, #203, .F. ) ;
#181 = COORDINATED_UNIVERSAL_TIME_OFFSET ( 1, 0, .AHEAD. ) ;
#182 = AXIS2_PLACEMENT_3D ( 'NONE', #21, #190, #95 ) ;
#183 = COORDINATED_UNIVERSAL_TIME_OFFSET ( 1, 0, .AHEAD. ) ;
#184 = AXIS2_PLACEMENT_3D ( 'NONE', #304, #303, #98 ) ;
#185 = DATE_TIME_ROLE ( 'classification_date' ) ;
#186 = FACE_OUTER_BOUND ( 'NONE', #40, .T. ) ;
#187 = ORIENTED_EDGE ( 'NONE', *, *, #82, .F. ) ;
#188 = LOCAL_TIME ( 11, 41, 20.00000000000000000, #10 ) ;
#189 = FACE_OUTER_BOUND ( 'NONE', #151, .T. ) ;
#190 = DIRECTION ( 'NONE',  ( 0.000000000000000000, 0.000000000000000000, 1.000000000000000000 ) ) ;
#191 = DIRECTION ( 'NONE',  ( -1.000000000000000000, 0.000000000000000000, 0.000000000000000000 ) ) ;
#192 = ADVANCED_FACE ( 'NONE', ( #119 ), #239, .T. ) ;
#193 = DIRECTION ( 'NONE',  ( -0.000000000000000000, -0.000000000000000000, -1.000000000000000000 ) ) ;
#194 = DIRECTION ( 'NONE',  ( 1.000000000000000000, 0.000000000000000000, 0.000000000000000000 ) ) ;
#195 = CARTESIAN_POINT ( 'NONE',  ( -7.200000000000001066, 8.817456953860944275E-16, 7.200000000000011724 ) ) ;
#196 = APPROVAL_PERSON_ORGANIZATION ( #277, #104, #293 ) ;
#197 = DIRECTION ( 'NONE',  ( 0.000000000000000000, 0.000000000000000000, -1.000000000000000000 ) ) ;
#198 = PERSON_AND_ORGANIZATION ( #16, #44 ) ;
#199 = VERTEX_POINT ( 'NONE', #214 ) ;
#200 = CC_DESIGN_DATE_AND_TIME_ASSIGNMENT ( #254, #296, ( #70 ) ) ;
#201 = APPROVAL_STATUS ( 'not_yet_approved' ) ;
#202 = CIRCLE ( 'NONE', #205, 11.00000000000000000 ) ;
#203 = EDGE_CURVE ( 'NONE', #208, #207, #172, .T. ) ;
#204 = AXIS2_PLACEMENT_3D ( 'NONE', #74, #265, #143 ) ;
#205 = AXIS2_PLACEMENT_3D ( 'NONE', #305, #147, #194 ) ;
#206 = APPLICATION_CONTEXT ( 'configuration controlled 3d designs of mechanical parts and assemblies' ) ;
#207 = VERTEX_POINT ( 'NONE', #213 ) ;
#208 = VERTEX_POINT ( 'NONE', #73 ) ;
#209 = TOROIDAL_SURFACE ( 'NONE', #249, 7.200000000000001066, 0.2000000000000000111 ) ;
#210 = ORIENTED_EDGE ( 'NONE', *, *, #65, .F. ) ;
#211 = AXIS2_PLACEMENT_3D ( 'NONE', #195, #99, #175 ) ;
#212 = ORIENTED_EDGE ( 'NONE', *, *, #279, .T. ) ;
#213 = CARTESIAN_POINT ( 'NONE',  ( 7.200000000000001066, 0.000000000000000000, 7.000000000000006217 ) ) ;
#214 = CARTESIAN_POINT ( 'NONE',  ( 11.00000000000000000, 1.347111479062088405E-15, 7.000000000000000000 ) ) ;
#215 = CYLINDRICAL_SURFACE ( 'NONE', #25, 11.00000000000000000 ) ;
#216 = DIRECTION ( 'NONE',  ( 0.000000000000000000, 0.000000000000000000, 1.000000000000000000 ) ) ;
#217 = APPROVAL ( #111, 'NEURÈENÝ' ) ;
#218 = CARTESIAN_POINT ( 'NONE',  ( 7.000000000000000888, 8.572527594031474176E-16, 167.0000000000000000 ) ) ;
#219 = ORIENTED_EDGE ( 'NONE', *, *, #57, .F. ) ;
#220 = LOCAL_TIME ( 11, 41, 20.00000000000000000, #80 ) ;
#221 = DIRECTION ( 'NONE',  ( -0.000000000000000000, -0.000000000000000000, -1.000000000000000000 ) ) ;
#222 = PERSON_AND_ORGANIZATION_ROLE ( 'classification_officer' ) ;
#223 = CC_DESIGN_PERSON_AND_ORGANIZATION_ASSIGNMENT ( #198, #273, ( #70 ) ) ;
#224 = DIRECTION ( 'NONE',  ( 1.000000000000000000, 0.000000000000000000, 0.000000000000000000 ) ) ;
#225 = ORIENTED_EDGE ( 'NONE', *, *, #75, .F. ) ;
#226 = CC_DESIGN_PERSON_AND_ORGANIZATION_ASSIGNMENT ( #88, #222, ( #71 ) ) ;
#227 = CALENDAR_DATE ( 2022, 7, 7 ) ;
#228 = PERSON_AND_ORGANIZATION ( #16, #44 ) ;
#229 = CIRCLE ( 'NONE', #146, 7.000000000000000888 ) ;
#230 = VERTEX_POINT ( 'NONE', #306 ) ;
#231 = FACE_OUTER_BOUND ( 'NONE', #162, .T. ) ;
#232 = ORIENTED_EDGE ( 'NONE', *, *, #235, .T. ) ;
#233 = CIRCLE ( 'NONE', #69, 11.00000000000000000 ) ;
#234 = ORIENTED_EDGE ( 'NONE', *, *, #113, .T. ) ;
#235 = EDGE_CURVE ( 'NONE', #66, #137, #107, .T. ) ;
#236 = CARTESIAN_POINT ( 'NONE',  ( -7.000000000000000888, 0.000000000000000000, 7.200000000000011724 ) ) ;
#237 = LINE ( 'NONE', #33, #281 ) ;
#238 = DESIGN_CONTEXT ( 'detailed design', #206, 'design' ) ;
#239 = CYLINDRICAL_SURFACE ( 'NONE', #204, 7.000000000000000888 ) ;
#240 = EDGE_LOOP ( 'NONE', ( #219, #210, #102, #34 ) ) ;
#241 = DIRECTION ( 'NONE',  ( 1.000000000000000000, 0.000000000000000000, 0.000000000000000000 ) ) ;
#242 = ORIENTED_EDGE ( 'NONE', *, *, #108, .F. ) ;
#243 = DIRECTION ( 'NONE',  ( 0.000000000000000000, -1.000000000000000000, 0.000000000000000000 ) ) ;
#244 =( GEOMETRIC_REPRESENTATION_CONTEXT ( 3 ) GLOBAL_UNCERTAINTY_ASSIGNED_CONTEXT ( ( #169 ) ) GLOBAL_UNIT_ASSIGNED_CONTEXT ( ( #129, #125, #177 ) ) REPRESENTATION_CONTEXT ( 'NONE', 'WORKASPACE' ) );
#245 = LOCAL_TIME ( 11, 41, 20.00000000000000000, #183 ) ;
#246 = APPROVAL_DATE_TIME ( #37, #104 ) ;
#247 = CARTESIAN_POINT ( 'NONE',  ( 0.000000000000000000, 0.000000000000000000, 0.000000000000000000 ) ) ;
#248 = COORDINATED_UNIVERSAL_TIME_OFFSET ( 1, 0, .AHEAD. ) ;
#249 = AXIS2_PLACEMENT_3D ( 'NONE', #260, #275, #42 ) ;
#250 = DIRECTION ( 'NONE',  ( 1.000000000000000000, 0.000000000000000000, -0.000000000000000000 ) ) ;
#251 = CC_DESIGN_PERSON_AND_ORGANIZATION_ASSIGNMENT ( #152, #6, ( #3 ) ) ;
#252 = CALENDAR_DATE ( 2022, 7, 7 ) ;
#253 = VECTOR ( 'NONE', #79, 1000.000000000000000 ) ;
#254 = DATE_AND_TIME ( #227, #77 ) ;
#255 = CIRCLE ( 'NONE', #211, 0.1999999999999996503 ) ;
#256 = ADVANCED_FACE ( 'NONE', ( #100 ), #168, .T. ) ;
#257 = DIRECTION ( 'NONE',  ( 1.000000000000000000, 0.000000000000000000, 0.000000000000000000 ) ) ;
#258 = CC_DESIGN_APPROVAL ( #217, ( #71 ) ) ;
#259 = EDGE_LOOP ( 'NONE', ( #242, #300 ) ) ;
#260 = CARTESIAN_POINT ( 'NONE',  ( 0.000000000000000000, 0.000000000000000000, 7.200000000000011724 ) ) ;
#261 = DIRECTION ( 'NONE',  ( -1.000000000000000000, 0.000000000000000000, 0.000000000000000000 ) ) ;
#262 = CC_DESIGN_APPROVAL ( #104, ( #19 ) ) ;
#263 = DIRECTION ( 'NONE',  ( 0.000000000000000000, 0.000000000000000000, 1.000000000000000000 ) ) ;
#264 = DIRECTION ( 'NONE',  ( 1.000000000000000000, 0.000000000000000000, 0.000000000000000000 ) ) ;
#265 = DIRECTION ( 'NONE',  ( -0.000000000000000000, -0.000000000000000000, -1.000000000000000000 ) ) ;
#266 = DIRECTION ( 'NONE',  ( -0.000000000000000000, -0.000000000000000000, -1.000000000000000000 ) ) ;
#267 = ORIENTED_EDGE ( 'NONE', *, *, #298, .T. ) ;
#268 = LINE ( 'NONE', #46, #141 ) ;
#269 = ORIENTED_EDGE ( 'NONE', *, *, #163, .T. ) ;
#270 = APPROVAL ( #201, 'NEURÈENÝ' ) ;
#271 = ORIENTED_EDGE ( 'NONE', *, *, #131, .T. ) ;
#272 = AXIS2_PLACEMENT_3D ( 'NONE', #247, #106, #224 ) ;
#273 = PERSON_AND_ORGANIZATION_ROLE ( 'creator' ) ;
#274 = DATE_AND_TIME ( #178, #158 ) ;
#275 = DIRECTION ( 'NONE',  ( 0.000000000000000000, 0.000000000000000000, 1.000000000000000000 ) ) ;
#276 = CIRCLE ( 'NONE', #43, 7.000000000000000888 ) ;
#277 = PERSON_AND_ORGANIZATION ( #16, #44 ) ;
#278 = CALENDAR_DATE ( 2022, 7, 7 ) ;
#279 = EDGE_CURVE ( 'NONE', #137, #68, #237, .T. ) ;
#280 = CARTESIAN_POINT ( 'NONE',  ( 11.00000000000000000, 1.347111479062088405E-15, 7.000000000000000000 ) ) ;
#281 = VECTOR ( 'NONE', #221, 1000.000000000000000 ) ;
#282 = ORIENTED_EDGE ( 'NONE', *, *, #82, .T. ) ;
#283 = CYLINDRICAL_SURFACE ( 'NONE', #48, 7.000000000000000888 ) ;
#284 = DIRECTION ( 'NONE',  ( -0.000000000000000000, -0.000000000000000000, -1.000000000000000000 ) ) ;
#285 = CARTESIAN_POINT ( 'NONE',  ( 0.000000000000000000, 0.000000000000000000, 7.000000000000000000 ) ) ;
#286 = CARTESIAN_POINT ( 'NONE',  ( 7.200000000000001066, 0.000000000000000000, 7.200000000000011724 ) ) ;
#287 = DIRECTION ( 'NONE',  ( 0.000000000000000000, 0.000000000000000000, 1.000000000000000000 ) ) ;
#288 = AXIS2_PLACEMENT_3D ( 'NONE', #85, #156, #250 ) ;
#289 = APPLICATION_CONTEXT ( 'configuration controlled 3d designs of mechanical parts and assemblies' ) ;
#290 = DIRECTION ( 'NONE',  ( 1.000000000000000000, 0.000000000000000000, 0.000000000000000000 ) ) ;
#291 = AXIS2_PLACEMENT_3D ( 'NONE', #49, #26, #122 ) ;
#292 = DIRECTION ( 'NONE',  ( 0.000000000000000000, 0.000000000000000000, 1.000000000000000000 ) ) ;
#293 = APPROVAL_ROLE ( '' ) ;
#294 = ORIENTED_EDGE ( 'NONE', *, *, #203, .T. ) ;
#295 = VERTEX_POINT ( 'NONE', #105 ) ;
#296 = DATE_TIME_ROLE ( 'creation_date' ) ;
#297 = SECURITY_CLASSIFICATION_LEVEL ( 'unclassified' ) ;
#298 = EDGE_CURVE ( 'NONE', #68, #123, #229, .T. ) ;
#299 = VERTEX_POINT ( 'NONE', #86 ) ;
#300 = ORIENTED_EDGE ( 'NONE', *, *, #163, .F. ) ;
#301 = DIRECTION ( 'NONE',  ( 0.000000000000000000, 0.000000000000000000, 1.000000000000000000 ) ) ;
#302 = CARTESIAN_POINT ( 'NONE',  ( 0.000000000000000000, 0.000000000000000000, 7.200000000000011724 ) ) ;
#303 = DIRECTION ( 'NONE',  ( 0.000000000000000000, 0.000000000000000000, 1.000000000000000000 ) ) ;
#304 = CARTESIAN_POINT ( 'NONE',  ( 0.000000000000000000, 0.000000000000000000, 167.0000000000000000 ) ) ;
#305 = CARTESIAN_POINT ( 'NONE',  ( 0.000000000000000000, 0.000000000000000000, 0.000000000000000000 ) ) ;
#306 = CARTESIAN_POINT ( 'NONE',  ( -11.00000000000000000, 0.000000000000000000, 7.000000000000000000 ) ) ;
#307 = CIRCLE ( 'NONE', #139, 7.000000000000000888 ) ;
ENDSEC;
END-ISO-10303-21;
