ISO-10303-21;
HEADER;
FILE_DESCRIPTION (( 'STEP AP203' ),
    '1' );
FILE_NAME ('824b.STEP',
    '2022-07-07T09:45:31',
    ( '' ),
    ( '' ),
    'SwSTEP 2.0',
    'SolidWorks 2019',
    '' );
FILE_SCHEMA (( 'CONFIG_CONTROL_DESIGN' ));
ENDSEC;

DATA;
#1 = CC_DESIGN_DATE_AND_TIME_ASSIGNMENT ( #24, #142, ( #89 ) ) ;
#2 = ORIENTED_EDGE ( 'NONE', *, *, #123, .T. ) ;
#3 =( LENGTH_UNIT ( ) NAMED_UNIT ( * ) SI_UNIT ( .MILLI., .METRE. ) );
#4 = ORIENTED_EDGE ( 'NONE', *, *, #110, .T. ) ;
#5 = APPROVAL_PERSON_ORGANIZATION ( #260, #263, #254 ) ;
#6 = ADVANCED_BREP_SHAPE_REPRESENTATION ( '824b', ( #299, #286 ), #141 ) ;
#7 = DIRECTION ( 'NONE',  ( 1.000000000000000000, 0.000000000000000000, 0.000000000000000000 ) ) ;
#8 = APPROVAL_STATUS ( 'not_yet_approved' ) ;
#9 = CIRCLE ( 'NONE', #205, 9.000000000000000000 ) ;
#10 = DIRECTION ( 'NONE',  ( 0.000000000000000000, 0.000000000000000000, 1.000000000000000000 ) ) ;
#11 = DIRECTION ( 'NONE',  ( 0.000000000000000000, 0.000000000000000000, 1.000000000000000000 ) ) ;
#12 = FACE_OUTER_BOUND ( 'NONE', #240, .T. ) ;
#13 = DIRECTION ( 'NONE',  ( 1.000000000000000000, 0.000000000000000000, 0.000000000000000000 ) ) ;
#14 = ADVANCED_FACE ( 'NONE', ( #71 ), #285, .T. ) ;
#15 = VERTEX_POINT ( 'NONE', #48 ) ;
#16 = AXIS2_PLACEMENT_3D ( 'NONE', #290, #215, #107 ) ;
#17 = LINE ( 'NONE', #19, #303 ) ;
#18 = COORDINATED_UNIVERSAL_TIME_OFFSET ( 1, 0, .AHEAD. ) ;
#19 = CARTESIAN_POINT ( 'NONE',  ( 6.000000000000000888, 7.347880794884120722E-16, 1206.999999999999773 ) ) ;
#20 = VERTEX_POINT ( 'NONE', #291 ) ;
#21 = TOROIDAL_SURFACE ( 'NONE', #90, 6.200000000000001066, 0.2000000000000000111 ) ;
#22 = DIRECTION ( 'NONE',  ( 1.000000000000000000, 0.000000000000000000, 0.000000000000000000 ) ) ;
#23 = ORIENTED_EDGE ( 'NONE', *, *, #198, .T. ) ;
#24 = DATE_AND_TIME ( #44, #268 ) ;
#25 = VERTEX_POINT ( 'NONE', #118 ) ;
#26 = PLANE ( 'NONE',  #49 ) ;
#27 = APPROVAL ( #279, 'NEURÈENÝ' ) ;
#28 = PERSON_AND_ORGANIZATION ( #112, #168 ) ;
#29 = ORIENTED_EDGE ( 'NONE', *, *, #102, .F. ) ;
#30 = CIRCLE ( 'NONE', #221, 6.000000000000000888 ) ;
#31 = CARTESIAN_POINT ( 'NONE',  ( 9.000000000000000000, 1.102182119232617714E-15, 0.000000000000000000 ) ) ;
#32 = DIRECTION ( 'NONE',  ( -0.000000000000000000, -0.000000000000000000, -1.000000000000000000 ) ) ;
#33 = PLANE ( 'NONE',  #143 ) ;
#34 = CC_DESIGN_PERSON_AND_ORGANIZATION_ASSIGNMENT ( #121, #231, ( #133 ) ) ;
#35 = VECTOR ( 'NONE', #306, 1000.000000000000000 ) ;
#36 = SECURITY_CLASSIFICATION ( '', '', #165 ) ;
#37 = CARTESIAN_POINT ( 'NONE',  ( -6.200000000000001066, 7.592810154713590821E-16, 7.200000000000095213 ) ) ;
#38 = AXIS2_PLACEMENT_3D ( 'NONE', #157, #227, #13 ) ;
#39 = APPLICATION_CONTEXT ( 'configuration controlled 3d designs of mechanical parts and assemblies' ) ;
#40 = COORDINATED_UNIVERSAL_TIME_OFFSET ( 1, 0, .AHEAD. ) ;
#41 = DIRECTION ( 'NONE',  ( 0.000000000000000000, 0.000000000000000000, 1.000000000000000000 ) ) ;
#42 = PERSON_AND_ORGANIZATION ( #112, #168 ) ;
#43 = CARTESIAN_POINT ( 'NONE',  ( 0.000000000000000000, 0.000000000000000000, 1206.999999999999773 ) ) ;
#44 = CALENDAR_DATE ( 2022, 7, 7 ) ;
#45 = CIRCLE ( 'NONE', #173, 6.200000000000001066 ) ;
#46 = DIRECTION ( 'NONE',  ( 1.000000000000000000, 0.000000000000000000, 0.000000000000000000 ) ) ;
#47 = APPROVAL_PERSON_ORGANIZATION ( #302, #27, #92 ) ;
#48 = CARTESIAN_POINT ( 'NONE',  ( 6.200000000000001066, 0.000000000000000000, 7.000000000000047962 ) ) ;
#49 = AXIS2_PLACEMENT_3D ( 'NONE', #74, #147, #170 ) ;
#50 = LINE ( 'NONE', #197, #35 ) ;
#51 = FACE_OUTER_BOUND ( 'NONE', #256, .T. ) ;
#52 = PERSON_AND_ORGANIZATION ( #112, #168 ) ;
#53 = FACE_OUTER_BOUND ( 'NONE', #192, .T. ) ;
#54 = ADVANCED_FACE ( 'NONE', ( #265, #53 ), #26, .T. ) ;
#55 = EDGE_CURVE ( 'NONE', #25, #15, #300, .T. ) ;
#56 = CARTESIAN_POINT ( 'NONE',  ( 0.000000000000000000, 0.000000000000000000, 7.000000000000000000 ) ) ;
#57 = APPROVAL_PERSON_ORGANIZATION ( #28, #250, #174 ) ;
#58 = CARTESIAN_POINT ( 'NONE',  ( 0.000000000000000000, 0.000000000000000000, 0.000000000000000000 ) ) ;
#59 = DIRECTION ( 'NONE',  ( 0.000000000000000000, 0.000000000000000000, 1.000000000000000000 ) ) ;
#60 = CARTESIAN_POINT ( 'NONE',  ( 9.000000000000000000, 1.102182119232617714E-15, 7.000000000000000000 ) ) ;
#61 = CIRCLE ( 'NONE', #195, 9.000000000000000000 ) ;
#62 = AXIS2_PLACEMENT_3D ( 'NONE', #297, #83, #270 ) ;
#63 = CC_DESIGN_DATE_AND_TIME_ASSIGNMENT ( #214, #72, ( #36 ) ) ;
#64 = PERSON_AND_ORGANIZATION_ROLE ( 'design_supplier' ) ;
#65 = APPROVAL_STATUS ( 'not_yet_approved' ) ;
#66 = CARTESIAN_POINT ( 'NONE',  ( 0.000000000000000000, 0.000000000000000000, 7.000000000000000000 ) ) ;
#67 = EDGE_CURVE ( 'NONE', #20, #164, #88, .T. ) ;
#68 = EDGE_LOOP ( 'NONE', ( #84, #189 ) ) ;
#69 = CALENDAR_DATE ( 2022, 7, 7 ) ;
#70 = DIRECTION ( 'NONE',  ( 1.000000000000000000, 0.000000000000000000, 0.000000000000000000 ) ) ;
#71 = FACE_OUTER_BOUND ( 'NONE', #144, .T. ) ;
#72 = DATE_TIME_ROLE ( 'classification_date' ) ;
#73 = AXIS2_PLACEMENT_3D ( 'NONE', #37, #85, #134 ) ;
#74 = CARTESIAN_POINT ( 'NONE',  ( 0.000000000000000000, 0.000000000000000000, 7.000000000000000000 ) ) ;
#75 = ORIENTED_EDGE ( 'NONE', *, *, #269, .F. ) ;
#76 = APPLICATION_PROTOCOL_DEFINITION ( 'international standard', 'config_control_design', 1994, #39 ) ;
#77 = ORIENTED_EDGE ( 'NONE', *, *, #179, .F. ) ;
#78 = ORIENTED_EDGE ( 'NONE', *, *, #175, .F. ) ;
#79 = CIRCLE ( 'NONE', #73, 0.1999999999999996503 ) ;
#80 = ORIENTED_EDGE ( 'NONE', *, *, #301, .T. ) ;
#81 = CARTESIAN_POINT ( 'NONE',  ( -9.000000000000000000, 0.000000000000000000, 7.000000000000000000 ) ) ;
#82 = LOCAL_TIME ( 11, 45, 31.00000000000000000, #257 ) ;
#83 = DIRECTION ( 'NONE',  ( 0.000000000000000000, 0.000000000000000000, 1.000000000000000000 ) ) ;
#84 = ORIENTED_EDGE ( 'NONE', *, *, #154, .T. ) ;
#85 = DIRECTION ( 'NONE',  ( 1.224646799147353207E-16, 1.000000000000000000, -0.000000000000000000 ) ) ;
#86 = ADVANCED_FACE ( 'NONE', ( #51 ), #273, .T. ) ;
#87 = AXIS2_PLACEMENT_3D ( 'NONE', #241, #307, #262 ) ;
#88 = CIRCLE ( 'NONE', #236, 6.000000000000000888 ) ;
#89 = PRODUCT_DEFINITION ( 'NEZNÁMÝ', '', #133, #130 ) ;
#90 = AXIS2_PLACEMENT_3D ( 'NONE', #155, #11, #200 ) ;
#91 = ORIENTED_EDGE ( 'NONE', *, *, #218, .F. ) ;
#92 = APPROVAL_ROLE ( '' ) ;
#93 = DIRECTION ( 'NONE',  ( 0.000000000000000000, 0.000000000000000000, 1.000000000000000000 ) ) ;
#94 = ORIENTED_EDGE ( 'NONE', *, *, #55, .F. ) ;
#95 = APPROVAL_DATE_TIME ( #212, #27 ) ;
#96 = CARTESIAN_POINT ( 'NONE',  ( 0.000000000000000000, 0.000000000000000000, 0.000000000000000000 ) ) ;
#97 = VERTEX_POINT ( 'NONE', #81 ) ;
#98 = EDGE_LOOP ( 'NONE', ( #277, #2, #247, #94 ) ) ;
#99 = AXIS2_PLACEMENT_3D ( 'NONE', #210, #114, #163 ) ;
#100 = DIRECTION ( 'NONE',  ( -0.000000000000000000, -0.000000000000000000, -1.000000000000000000 ) ) ;
#101 = VERTEX_POINT ( 'NONE', #60 ) ;
#102 = EDGE_CURVE ( 'NONE', #97, #186, #176, .T. ) ;
#103 = ORIENTED_EDGE ( 'NONE', *, *, #198, .F. ) ;
#104 = EDGE_LOOP ( 'NONE', ( #292, #4 ) ) ;
#105 = CC_DESIGN_PERSON_AND_ORGANIZATION_ASSIGNMENT ( #42, #138, ( #36 ) ) ;
#106 = AXIS2_PLACEMENT_3D ( 'NONE', #56, #32, #111 ) ;
#107 = DIRECTION ( 'NONE',  ( -1.000000000000000000, 0.000000000000000000, 0.000000000000000000 ) ) ;
#108 = DIRECTION ( 'NONE',  ( 1.000000000000000000, 0.000000000000000000, -0.000000000000000000 ) ) ;
#109 = DIRECTION ( 'NONE',  ( 0.000000000000000000, 0.000000000000000000, 1.000000000000000000 ) ) ;
#110 = EDGE_CURVE ( 'NONE', #164, #20, #30, .T. ) ;
#111 = DIRECTION ( 'NONE',  ( -1.000000000000000000, 0.000000000000000000, 0.000000000000000000 ) ) ;
#112 = PERSON ( 'NEURÈENÝ', 'NEURÈENÝ', 'NEURÈENÝ', ('NEURÈENÝ'), ('NEURÈENÝ'), ('NEURÈENÝ') ) ;
#113 = PERSON_AND_ORGANIZATION ( #112, #168 ) ;
#114 = DIRECTION ( 'NONE',  ( -0.000000000000000000, -0.000000000000000000, -1.000000000000000000 ) ) ;
#115 = CIRCLE ( 'NONE', #293, 9.000000000000000000 ) ;
#116 = PERSON_AND_ORGANIZATION_ROLE ( 'creator' ) ;
#117 = CARTESIAN_POINT ( 'NONE',  ( 0.000000000000000000, 0.000000000000000000, 0.000000000000000000 ) ) ;
#118 = CARTESIAN_POINT ( 'NONE',  ( 6.000000000000000888, 7.347880794884120722E-16, 7.200000000000095213 ) ) ;
#119 =( NAMED_UNIT ( * ) PLANE_ANGLE_UNIT ( ) SI_UNIT ( $, .RADIAN. ) );
#120 = EDGE_LOOP ( 'NONE', ( #281, #183, #238, #80 ) ) ;
#121 = PERSON_AND_ORGANIZATION ( #112, #168 ) ;
#122 = CARTESIAN_POINT ( 'NONE',  ( 0.000000000000000000, 0.000000000000000000, 0.000000000000000000 ) ) ;
#123 = EDGE_CURVE ( 'NONE', #216, #191, #79, .T. ) ;
#124 = ORIENTED_EDGE ( 'NONE', *, *, #55, .T. ) ;
#125 = PRODUCT_DEFINITION_SHAPE ( 'NONE', 'NONE',  #89 ) ;
#126 = CARTESIAN_POINT ( 'NONE',  ( 0.000000000000000000, 0.000000000000000000, 1206.999999999999773 ) ) ;
#127 = DIRECTION ( 'NONE',  ( 1.000000000000000000, 0.000000000000000000, 0.000000000000000000 ) ) ;
#128 = DIRECTION ( 'NONE',  ( 1.000000000000000000, 0.000000000000000000, 0.000000000000000000 ) ) ;
#129 = CARTESIAN_POINT ( 'NONE',  ( 0.000000000000000000, 0.000000000000000000, 7.200000000000095213 ) ) ;
#130 = DESIGN_CONTEXT ( 'detailed design', #235, 'design' ) ;
#131 = FACE_OUTER_BOUND ( 'NONE', #104, .T. ) ;
#132 = AXIS2_PLACEMENT_3D ( 'NONE', #129, #232, #46 ) ;
#133 = PRODUCT_DEFINITION_FORMATION_WITH_SPECIFIED_SOURCE ( 'LIBOVOLNÝ', '', #188, .NOT_KNOWN. ) ;
#134 = DIRECTION ( 'NONE',  ( -1.000000000000000000, 1.224646799147353454E-16, 0.000000000000000000 ) ) ;
#135 = APPROVAL_DATE_TIME ( #206, #263 ) ;
#136 = CYLINDRICAL_SURFACE ( 'NONE', #16, 6.000000000000000888 ) ;
#137 = ADVANCED_FACE ( 'NONE', ( #12 ), #33, .F. ) ;
#138 = PERSON_AND_ORGANIZATION_ROLE ( 'classification_officer' ) ;
#139 = MECHANICAL_CONTEXT ( 'NONE', #39, 'mechanical' ) ;
#140 = ORIENTED_EDGE ( 'NONE', *, *, #175, .T. ) ;
#141 =( GEOMETRIC_REPRESENTATION_CONTEXT ( 3 ) GLOBAL_UNCERTAINTY_ASSIGNED_CONTEXT ( ( #156 ) ) GLOBAL_UNIT_ASSIGNED_CONTEXT ( ( #3, #119, #295 ) ) REPRESENTATION_CONTEXT ( 'NONE', 'WORKASPACE' ) );
#142 = DATE_TIME_ROLE ( 'creation_date' ) ;
#143 = AXIS2_PLACEMENT_3D ( 'NONE', #58, #10, #249 ) ;
#144 = EDGE_LOOP ( 'NONE', ( #283, #148, #23, #153 ) ) ;
#145 = PRODUCT_RELATED_PRODUCT_CATEGORY ( 'detail', '', ( #188 ) ) ;
#146 = ORIENTED_EDGE ( 'NONE', *, *, #276, .F. ) ;
#147 = DIRECTION ( 'NONE',  ( 0.000000000000000000, 0.000000000000000000, 1.000000000000000000 ) ) ;
#148 = ORIENTED_EDGE ( 'NONE', *, *, #203, .T. ) ;
#149 = PERSON_AND_ORGANIZATION_ROLE ( 'design_owner' ) ;
#150 = DIRECTION ( 'NONE',  ( -0.000000000000000000, -0.000000000000000000, -1.000000000000000000 ) ) ;
#151 = AXIS2_PLACEMENT_3D ( 'NONE', #187, #93, #261 ) ;
#152 = DIRECTION ( 'NONE',  ( 1.000000000000000000, 0.000000000000000000, 0.000000000000000000 ) ) ;
#153 = ORIENTED_EDGE ( 'NONE', *, *, #226, .F. ) ;
#154 = EDGE_CURVE ( 'NONE', #15, #191, #45, .T. ) ;
#155 = CARTESIAN_POINT ( 'NONE',  ( 0.000000000000000000, 0.000000000000000000, 7.200000000000095213 ) ) ;
#156 = UNCERTAINTY_MEASURE_WITH_UNIT (LENGTH_MEASURE( 1.000000000000000082E-05 ), #3, 'distance_accuracy_value', 'NONE');
#157 = CARTESIAN_POINT ( 'NONE',  ( 0.000000000000000000, 0.000000000000000000, 7.000000000000000000 ) ) ;
#158 = CC_DESIGN_PERSON_AND_ORGANIZATION_ASSIGNMENT ( #181, #116, ( #89 ) ) ;
#159 = VECTOR ( 'NONE', #222, 1000.000000000000000 ) ;
#160 = CALENDAR_DATE ( 2022, 7, 7 ) ;
#161 = ADVANCED_FACE ( 'NONE', ( #131 ), #223, .T. ) ;
#162 = COORDINATED_UNIVERSAL_TIME_OFFSET ( 1, 0, .AHEAD. ) ;
#163 = DIRECTION ( 'NONE',  ( -1.000000000000000000, 0.000000000000000000, 0.000000000000000000 ) ) ;
#164 = VERTEX_POINT ( 'NONE', #251 ) ;
#165 = SECURITY_CLASSIFICATION_LEVEL ( 'unclassified' ) ;
#166 = DIRECTION ( 'NONE',  ( -0.000000000000000000, -0.000000000000000000, -1.000000000000000000 ) ) ;
#167 = ADVANCED_FACE ( 'NONE', ( #224 ), #21, .F. ) ;
#168 = ORGANIZATION ( 'NEURÈENÝ', 'NEURÈENÝ', '' ) ;
#169 = FACE_OUTER_BOUND ( 'NONE', #258, .T. ) ;
#170 = DIRECTION ( 'NONE',  ( 1.000000000000000000, 0.000000000000000000, -0.000000000000000000 ) ) ;
#171 = EDGE_LOOP ( 'NONE', ( #289, #103, #124, #75 ) ) ;
#172 = DIRECTION ( 'NONE',  ( -1.000000000000000000, 0.000000000000000000, 0.000000000000000000 ) ) ;
#173 = AXIS2_PLACEMENT_3D ( 'NONE', #272, #150, #128 ) ;
#174 = APPROVAL_ROLE ( '' ) ;
#175 = EDGE_CURVE ( 'NONE', #101, #97, #234, .T. ) ;
#176 = LINE ( 'NONE', #271, #159 ) ;
#177 = DIRECTION ( 'NONE',  ( 0.000000000000000000, 0.000000000000000000, 1.000000000000000000 ) ) ;
#178 = FACE_OUTER_BOUND ( 'NONE', #171, .T. ) ;
#179 = EDGE_CURVE ( 'NONE', #97, #101, #9, .T. ) ;
#180 = CIRCLE ( 'NONE', #252, 6.200000000000001066 ) ;
#181 = PERSON_AND_ORGANIZATION ( #112, #168 ) ;
#182 = DIRECTION ( 'NONE',  ( 0.000000000000000000, 0.000000000000000000, 1.000000000000000000 ) ) ;
#183 = ORIENTED_EDGE ( 'NONE', *, *, #67, .F. ) ;
#184 = LINE ( 'NONE', #282, #259 ) ;
#185 = ADVANCED_FACE ( 'NONE', ( #178 ), #190, .F. ) ;
#186 = VERTEX_POINT ( 'NONE', #204 ) ;
#187 = CARTESIAN_POINT ( 'NONE',  ( 0.000000000000000000, 0.000000000000000000, 7.200000000000095213 ) ) ;
#188 = PRODUCT ( '824b', '824b', '', ( #139 ) ) ;
#189 = ORIENTED_EDGE ( 'NONE', *, *, #269, .T. ) ;
#190 = TOROIDAL_SURFACE ( 'NONE', #62, 6.200000000000001066, 0.2000000000000000111 ) ;
#191 = VERTEX_POINT ( 'NONE', #246 ) ;
#192 = EDGE_LOOP ( 'NONE', ( #243, #140 ) ) ;
#193 = CC_DESIGN_PERSON_AND_ORGANIZATION_ASSIGNMENT ( #113, #64, ( #133 ) ) ;
#194 = CIRCLE ( 'NONE', #151, 6.000000000000000888 ) ;
#195 = AXIS2_PLACEMENT_3D ( 'NONE', #117, #41, #22 ) ;
#196 = VERTEX_POINT ( 'NONE', #31 ) ;
#197 = CARTESIAN_POINT ( 'NONE',  ( -6.000000000000000888, 0.000000000000000000, 1206.999999999999773 ) ) ;
#198 = EDGE_CURVE ( 'NONE', #25, #216, #219, .T. ) ;
#199 = CARTESIAN_POINT ( 'NONE',  ( 0.000000000000000000, 0.000000000000000000, 1206.999999999999773 ) ) ;
#200 = DIRECTION ( 'NONE',  ( 1.000000000000000000, 0.000000000000000000, 0.000000000000000000 ) ) ;
#201 = ORIENTED_EDGE ( 'NONE', *, *, #209, .F. ) ;
#202 = CARTESIAN_POINT ( 'NONE',  ( 0.000000000000000000, 0.000000000000000000, 7.000000000000000000 ) ) ;
#203 = EDGE_CURVE ( 'NONE', #164, #25, #17, .T. ) ;
#204 = CARTESIAN_POINT ( 'NONE',  ( -9.000000000000000000, 0.000000000000000000, 0.000000000000000000 ) ) ;
#205 = AXIS2_PLACEMENT_3D ( 'NONE', #202, #177, #298 ) ;
#206 = DATE_AND_TIME ( #69, #242 ) ;
#207 = FACE_OUTER_BOUND ( 'NONE', #120, .T. ) ;
#208 = DATE_AND_TIME ( #284, #228 ) ;
#209 = EDGE_CURVE ( 'NONE', #186, #196, #61, .T. ) ;
#210 = CARTESIAN_POINT ( 'NONE',  ( 0.000000000000000000, 0.000000000000000000, 7.000000000000000000 ) ) ;
#211 = ORIENTED_EDGE ( 'NONE', *, *, #218, .T. ) ;
#212 = DATE_AND_TIME ( #160, #82 ) ;
#213 = ORIENTED_EDGE ( 'NONE', *, *, #102, .T. ) ;
#214 = DATE_AND_TIME ( #278, #296 ) ;
#215 = DIRECTION ( 'NONE',  ( -0.000000000000000000, -0.000000000000000000, -1.000000000000000000 ) ) ;
#216 = VERTEX_POINT ( 'NONE', #237 ) ;
#217 = DIRECTION ( 'NONE',  ( 0.000000000000000000, 0.000000000000000000, 1.000000000000000000 ) ) ;
#218 = EDGE_CURVE ( 'NONE', #101, #196, #184, .T. ) ;
#219 = CIRCLE ( 'NONE', #132, 6.000000000000000888 ) ;
#220 = ADVANCED_FACE ( 'NONE', ( #169 ), #229, .T. ) ;
#221 = AXIS2_PLACEMENT_3D ( 'NONE', #199, #59, #152 ) ;
#222 = DIRECTION ( 'NONE',  ( -0.000000000000000000, -0.000000000000000000, -1.000000000000000000 ) ) ;
#223 = PLANE ( 'NONE',  #266 ) ;
#224 = FACE_OUTER_BOUND ( 'NONE', #98, .T. ) ;
#225 = CC_DESIGN_APPROVAL ( #250, ( #89 ) ) ;
#226 = EDGE_CURVE ( 'NONE', #20, #216, #50, .T. ) ;
#227 = DIRECTION ( 'NONE',  ( 0.000000000000000000, 0.000000000000000000, 1.000000000000000000 ) ) ;
#228 = LOCAL_TIME ( 11, 45, 31.00000000000000000, #239 ) ;
#229 = CYLINDRICAL_SURFACE ( 'NONE', #99, 9.000000000000000000 ) ;
#230 = ADVANCED_FACE ( 'NONE', ( #207 ), #136, .T. ) ;
#231 = PERSON_AND_ORGANIZATION_ROLE ( 'creator' ) ;
#232 = DIRECTION ( 'NONE',  ( 0.000000000000000000, 0.000000000000000000, 1.000000000000000000 ) ) ;
#233 = ORIENTED_EDGE ( 'NONE', *, *, #209, .T. ) ;
#234 = CIRCLE ( 'NONE', #38, 9.000000000000000000 ) ;
#235 = APPLICATION_CONTEXT ( 'configuration controlled 3d designs of mechanical parts and assemblies' ) ;
#236 = AXIS2_PLACEMENT_3D ( 'NONE', #126, #217, #7 ) ;
#237 = CARTESIAN_POINT ( 'NONE',  ( -6.000000000000000888, 0.000000000000000000, 7.200000000000095213 ) ) ;
#238 = ORIENTED_EDGE ( 'NONE', *, *, #226, .T. ) ;
#239 = COORDINATED_UNIVERSAL_TIME_OFFSET ( 1, 0, .AHEAD. ) ;
#240 = EDGE_LOOP ( 'NONE', ( #201, #146 ) ) ;
#241 = CARTESIAN_POINT ( 'NONE',  ( 6.200000000000001066, 0.000000000000000000, 7.200000000000095213 ) ) ;
#242 = LOCAL_TIME ( 11, 45, 31.00000000000000000, #162 ) ;
#243 = ORIENTED_EDGE ( 'NONE', *, *, #179, .T. ) ;
#244 = APPLICATION_PROTOCOL_DEFINITION ( 'international standard', 'config_control_design', 1994, #235 ) ;
#245 = CLOSED_SHELL ( 'NONE', ( #167, #14, #220, #86, #54, #137, #230, #161, #185 ) ) ;
#246 = CARTESIAN_POINT ( 'NONE',  ( -6.200000000000001066, 7.592810154713590821E-16, 7.000000000000047962 ) ) ;
#247 = ORIENTED_EDGE ( 'NONE', *, *, #154, .F. ) ;
#248 = CARTESIAN_POINT ( 'NONE',  ( 0.000000000000000000, 0.000000000000000000, 1206.999999999999773 ) ) ;
#249 = DIRECTION ( 'NONE',  ( 1.000000000000000000, 0.000000000000000000, -0.000000000000000000 ) ) ;
#250 = APPROVAL ( #8, 'NEURÈENÝ' ) ;
#251 = CARTESIAN_POINT ( 'NONE',  ( 6.000000000000000888, 7.347880794884120722E-16, 1206.999999999999773 ) ) ;
#252 = AXIS2_PLACEMENT_3D ( 'NONE', #66, #100, #304 ) ;
#253 = SHAPE_DEFINITION_REPRESENTATION ( #125, #6 ) ;
#254 = APPROVAL_ROLE ( '' ) ;
#255 = DIRECTION ( 'NONE',  ( 0.000000000000000000, 0.000000000000000000, 1.000000000000000000 ) ) ;
#256 = EDGE_LOOP ( 'NONE', ( #91, #77, #213, #233 ) ) ;
#257 = COORDINATED_UNIVERSAL_TIME_OFFSET ( 1, 0, .AHEAD. ) ;
#258 = EDGE_LOOP ( 'NONE', ( #78, #211, #294, #29 ) ) ;
#259 = VECTOR ( 'NONE', #264, 1000.000000000000000 ) ;
#260 = PERSON_AND_ORGANIZATION ( #112, #168 ) ;
#261 = DIRECTION ( 'NONE',  ( 1.000000000000000000, 0.000000000000000000, 0.000000000000000000 ) ) ;
#262 = DIRECTION ( 'NONE',  ( 0.000000000000000000, 0.000000000000000000, -1.000000000000000000 ) ) ;
#263 = APPROVAL ( #65, 'NEURÈENÝ' ) ;
#264 = DIRECTION ( 'NONE',  ( -0.000000000000000000, -0.000000000000000000, -1.000000000000000000 ) ) ;
#265 = FACE_BOUND ( 'NONE', #68, .T. ) ;
#266 = AXIS2_PLACEMENT_3D ( 'NONE', #248, #109, #108 ) ;
#267 = CC_DESIGN_APPROVAL ( #263, ( #133 ) ) ;
#268 = LOCAL_TIME ( 11, 45, 31.00000000000000000, #40 ) ;
#269 = EDGE_CURVE ( 'NONE', #191, #15, #180, .T. ) ;
#270 = DIRECTION ( 'NONE',  ( 1.000000000000000000, 0.000000000000000000, 0.000000000000000000 ) ) ;
#271 = CARTESIAN_POINT ( 'NONE',  ( -9.000000000000000000, 0.000000000000000000, 7.000000000000000000 ) ) ;
#272 = CARTESIAN_POINT ( 'NONE',  ( 0.000000000000000000, 0.000000000000000000, 7.000000000000000000 ) ) ;
#273 = CYLINDRICAL_SURFACE ( 'NONE', #106, 9.000000000000000000 ) ;
#274 = CC_DESIGN_SECURITY_CLASSIFICATION ( #36, ( #133 ) ) ;
#275 = AXIS2_PLACEMENT_3D ( 'NONE', #43, #166, #172 ) ;
#276 = EDGE_CURVE ( 'NONE', #196, #186, #115, .T. ) ;
#277 = ORIENTED_EDGE ( 'NONE', *, *, #301, .F. ) ;
#278 = CALENDAR_DATE ( 2022, 7, 7 ) ;
#279 = APPROVAL_STATUS ( 'not_yet_approved' ) ;
#280 = DIRECTION ( 'NONE',  ( -0.000000000000000000, -0.000000000000000000, -1.000000000000000000 ) ) ;
#281 = ORIENTED_EDGE ( 'NONE', *, *, #203, .F. ) ;
#282 = CARTESIAN_POINT ( 'NONE',  ( 9.000000000000000000, 1.102182119232617714E-15, 7.000000000000000000 ) ) ;
#283 = ORIENTED_EDGE ( 'NONE', *, *, #110, .F. ) ;
#284 = CALENDAR_DATE ( 2022, 7, 7 ) ;
#285 = CYLINDRICAL_SURFACE ( 'NONE', #275, 6.000000000000000888 ) ;
#286 = AXIS2_PLACEMENT_3D ( 'NONE', #122, #182, #127 ) ;
#287 = CC_DESIGN_APPROVAL ( #27, ( #36 ) ) ;
#288 = CC_DESIGN_PERSON_AND_ORGANIZATION_ASSIGNMENT ( #52, #149, ( #188 ) ) ;
#289 = ORIENTED_EDGE ( 'NONE', *, *, #123, .F. ) ;
#290 = CARTESIAN_POINT ( 'NONE',  ( 0.000000000000000000, 0.000000000000000000, 1206.999999999999773 ) ) ;
#291 = CARTESIAN_POINT ( 'NONE',  ( -6.000000000000000888, 0.000000000000000000, 1206.999999999999773 ) ) ;
#292 = ORIENTED_EDGE ( 'NONE', *, *, #67, .T. ) ;
#293 = AXIS2_PLACEMENT_3D ( 'NONE', #96, #255, #70 ) ;
#294 = ORIENTED_EDGE ( 'NONE', *, *, #276, .T. ) ;
#295 =( NAMED_UNIT ( * ) SI_UNIT ( $, .STERADIAN. ) SOLID_ANGLE_UNIT ( ) );
#296 = LOCAL_TIME ( 11, 45, 31.00000000000000000, #18 ) ;
#297 = CARTESIAN_POINT ( 'NONE',  ( 0.000000000000000000, 0.000000000000000000, 7.200000000000095213 ) ) ;
#298 = DIRECTION ( 'NONE',  ( 1.000000000000000000, 0.000000000000000000, 0.000000000000000000 ) ) ;
#299 = MANIFOLD_SOLID_BREP ( 'Zaoblit1', #245 ) ;
#300 = CIRCLE ( 'NONE', #87, 0.1999999999999996503 ) ;
#301 = EDGE_CURVE ( 'NONE', #216, #25, #194, .T. ) ;
#302 = PERSON_AND_ORGANIZATION ( #112, #168 ) ;
#303 = VECTOR ( 'NONE', #280, 1000.000000000000000 ) ;
#304 = DIRECTION ( 'NONE',  ( 1.000000000000000000, 0.000000000000000000, 0.000000000000000000 ) ) ;
#305 = APPROVAL_DATE_TIME ( #208, #250 ) ;
#306 = DIRECTION ( 'NONE',  ( -0.000000000000000000, -0.000000000000000000, -1.000000000000000000 ) ) ;
#307 = DIRECTION ( 'NONE',  ( 0.000000000000000000, -1.000000000000000000, 0.000000000000000000 ) ) ;
ENDSEC;
END-ISO-10303-21;
