ISO-10303-21;
HEADER;
FILE_DESCRIPTION (( 'STEP AP203' ),
    '1' );
FILE_NAME ('36d5.STEP',
    '2023-02-12T12:07:29',
    ( '' ),
    ( '' ),
    'SwSTEP 2.0',
    'SolidWorks 2019',
    '' );
FILE_SCHEMA (( 'CONFIG_CONTROL_DESIGN' ));
ENDSEC;

DATA;
#1 = APPROVAL_DATE_TIME ( #56, #22 ) ;
#2 = CALENDAR_DATE ( 2023, 12, 2 ) ;
#3 = CC_DESIGN_DATE_AND_TIME_ASSIGNMENT ( #29, #86, ( #20 ) ) ;
#4 = DIRECTION ( 'NONE',  ( 0.000000000000000000, 0.000000000000000000, 1.000000000000000000 ) ) ;
#5 = ORIENTED_EDGE ( 'NONE', *, *, #66, .F. ) ;
#6 = CARTESIAN_POINT ( 'NONE',  ( -6.000000000000000888, 0.000000000000000000, 0.000000000000000000 ) ) ;
#7 = ORIENTED_EDGE ( 'NONE', *, *, #91, .T. ) ;
#8 = ORIENTED_EDGE ( 'NONE', *, *, #91, .F. ) ;
#9 =( GEOMETRIC_REPRESENTATION_CONTEXT ( 3 ) GLOBAL_UNCERTAINTY_ASSIGNED_CONTEXT ( ( #14 ) ) GLOBAL_UNIT_ASSIGNED_CONTEXT ( ( #34, #215, #188 ) ) REPRESENTATION_CONTEXT ( 'NONE', 'WORKASPACE' ) );
#10 = APPROVAL ( #158, 'NEURÈENÝ' ) ;
#11 = CYLINDRICAL_SURFACE ( 'NONE', #55, 6.000000000000000888 ) ;
#12 = PERSON_AND_ORGANIZATION_ROLE ( 'design_supplier' ) ;
#13 = CARTESIAN_POINT ( 'NONE',  ( 0.000000000000000000, 0.000000000000000000, 400.0000000000000000 ) ) ;
#14 = UNCERTAINTY_MEASURE_WITH_UNIT (LENGTH_MEASURE( 1.000000000000000082E-05 ), #34, 'distance_accuracy_value', 'NONE');
#15 = CIRCLE ( 'NONE', #150, 6.000000000000000888 ) ;
#16 = PERSON_AND_ORGANIZATION_ROLE ( 'creator' ) ;
#17 = PLANE ( 'NONE',  #165 ) ;
#18 = APPROVAL_ROLE ( '' ) ;
#19 = CC_DESIGN_PERSON_AND_ORGANIZATION_ASSIGNMENT ( #164, #254, ( #137 ) ) ;
#20 = SECURITY_CLASSIFICATION ( '', '', #176 ) ;
#21 = ORIENTED_EDGE ( 'NONE', *, *, #186, .T. ) ;
#22 = APPROVAL ( #153, 'NEURÈENÝ' ) ;
#23 = CARTESIAN_POINT ( 'NONE',  ( 0.000000000000000000, 0.000000000000000000, 5.000000000000000000 ) ) ;
#24 = VERTEX_POINT ( 'NONE', #178 ) ;
#25 = ORIENTED_EDGE ( 'NONE', *, *, #139, .F. ) ;
#26 = AXIS2_PLACEMENT_3D ( 'NONE', #50, #70, #90 ) ;
#27 = DIRECTION ( 'NONE',  ( -1.000000000000000000, 0.000000000000000000, 0.000000000000000000 ) ) ;
#28 = FACE_OUTER_BOUND ( 'NONE', #69, .T. ) ;
#29 = DATE_AND_TIME ( #201, #151 ) ;
#30 = CARTESIAN_POINT ( 'NONE',  ( 3.250000000000000444, 3.980102097228897245E-16, 400.0000000000000000 ) ) ;
#31 = CARTESIAN_POINT ( 'NONE',  ( 0.000000000000000000, 0.000000000000000000, 400.0000000000000000 ) ) ;
#32 = AXIS2_PLACEMENT_3D ( 'NONE', #156, #4, #237 ) ;
#33 = CARTESIAN_POINT ( 'NONE',  ( 0.000000000000000000, 0.000000000000000000, 5.000000000000000000 ) ) ;
#34 =( LENGTH_UNIT ( ) NAMED_UNIT ( * ) SI_UNIT ( .MILLI., .METRE. ) );
#35 = COORDINATED_UNIVERSAL_TIME_OFFSET ( 1, 0, .AHEAD. ) ;
#36 = FACE_OUTER_BOUND ( 'NONE', #221, .T. ) ;
#37 = DIRECTION ( 'NONE',  ( -0.000000000000000000, -0.000000000000000000, -1.000000000000000000 ) ) ;
#38 = ORIENTED_EDGE ( 'NONE', *, *, #219, .F. ) ;
#39 = LOCAL_TIME ( 13, 7, 29.00000000000000000, #148 ) ;
#40 = PRODUCT_RELATED_PRODUCT_CATEGORY ( 'detail', '', ( #102 ) ) ;
#41 = ORIENTED_EDGE ( 'NONE', *, *, #106, .F. ) ;
#42 = VECTOR ( 'NONE', #60, 1000.000000000000000 ) ;
#43 = ADVANCED_BREP_SHAPE_REPRESENTATION ( '36d5', ( #49, #77 ), #9 ) ;
#44 = APPROVAL_PERSON_ORGANIZATION ( #209, #135, #211 ) ;
#45 = PLANE ( 'NONE',  #26 ) ;
#46 = SHAPE_DEFINITION_REPRESENTATION ( #208, #43 ) ;
#47 = CARTESIAN_POINT ( 'NONE',  ( -3.250000000000000444, 0.000000000000000000, 400.0000000000000000 ) ) ;
#48 = LINE ( 'NONE', #224, #229 ) ;
#49 = MANIFOLD_SOLID_BREP ( 'Pøidat vysunutím3', #187 ) ;
#50 = CARTESIAN_POINT ( 'NONE',  ( 0.000000000000000000, 0.000000000000000000, 400.0000000000000000 ) ) ;
#51 = DATE_AND_TIME ( #185, #246 ) ;
#52 = EDGE_CURVE ( 'NONE', #132, #140, #147, .T. ) ;
#53 = VECTOR ( 'NONE', #184, 1000.000000000000000 ) ;
#54 = CC_DESIGN_PERSON_AND_ORGANIZATION_ASSIGNMENT ( #222, #160, ( #20 ) ) ;
#55 = AXIS2_PLACEMENT_3D ( 'NONE', #123, #203, #200 ) ;
#56 = DATE_AND_TIME ( #80, #205 ) ;
#57 = ADVANCED_FACE ( 'NONE', ( #248 ), #45, .T. ) ;
#58 = PERSON_AND_ORGANIZATION ( #173, #79 ) ;
#59 = CARTESIAN_POINT ( 'NONE',  ( 6.000000000000000888, 7.347880794884120722E-16, 5.000000000000000000 ) ) ;
#60 = DIRECTION ( 'NONE',  ( -0.000000000000000000, -0.000000000000000000, -1.000000000000000000 ) ) ;
#61 = ORIENTED_EDGE ( 'NONE', *, *, #170, .T. ) ;
#62 = MECHANICAL_CONTEXT ( 'NONE', #133, 'mechanical' ) ;
#63 = EDGE_CURVE ( 'NONE', #252, #140, #48, .T. ) ;
#64 = FACE_OUTER_BOUND ( 'NONE', #238, .T. ) ;
#65 = ORIENTED_EDGE ( 'NONE', *, *, #52, .F. ) ;
#66 = EDGE_CURVE ( 'NONE', #140, #132, #15, .T. ) ;
#67 = VERTEX_POINT ( 'NONE', #162 ) ;
#68 = DIRECTION ( 'NONE',  ( 1.000000000000000000, 0.000000000000000000, 0.000000000000000000 ) ) ;
#69 = EDGE_LOOP ( 'NONE', ( #225, #21 ) ) ;
#70 = DIRECTION ( 'NONE',  ( 0.000000000000000000, 0.000000000000000000, 1.000000000000000000 ) ) ;
#71 = CALENDAR_DATE ( 2023, 12, 2 ) ;
#72 = CIRCLE ( 'NONE', #206, 6.000000000000000888 ) ;
#73 = DIRECTION ( 'NONE',  ( 0.000000000000000000, 0.000000000000000000, 1.000000000000000000 ) ) ;
#74 = PRODUCT_DEFINITION ( 'NEZNÁMÝ', '', #137, #179 ) ;
#75 = LINE ( 'NONE', #30, #53 ) ;
#76 = CC_DESIGN_DATE_AND_TIME_ASSIGNMENT ( #128, #96, ( #74 ) ) ;
#77 = AXIS2_PLACEMENT_3D ( 'NONE', #119, #194, #101 ) ;
#78 = CIRCLE ( 'NONE', #163, 3.250000000000000444 ) ;
#79 = ORGANIZATION ( 'NEURÈENÝ', 'NEURÈENÝ', '' ) ;
#80 = CALENDAR_DATE ( 2023, 12, 2 ) ;
#81 = PERSON_AND_ORGANIZATION_ROLE ( 'design_owner' ) ;
#82 = ORIENTED_EDGE ( 'NONE', *, *, #52, .T. ) ;
#83 = CARTESIAN_POINT ( 'NONE',  ( 0.000000000000000000, 0.000000000000000000, 5.000000000000000000 ) ) ;
#84 = ORIENTED_EDGE ( 'NONE', *, *, #106, .T. ) ;
#85 = DIRECTION ( 'NONE',  ( -0.000000000000000000, -0.000000000000000000, -1.000000000000000000 ) ) ;
#86 = DATE_TIME_ROLE ( 'classification_date' ) ;
#87 = FACE_OUTER_BOUND ( 'NONE', #195, .T. ) ;
#88 = ADVANCED_FACE ( 'NONE', ( #251 ), #11, .T. ) ;
#89 = APPROVAL_ROLE ( '' ) ;
#90 = DIRECTION ( 'NONE',  ( 1.000000000000000000, 0.000000000000000000, -0.000000000000000000 ) ) ;
#91 = EDGE_CURVE ( 'NONE', #67, #198, #75, .T. ) ;
#92 = ORIENTED_EDGE ( 'NONE', *, *, #63, .F. ) ;
#93 = CC_DESIGN_PERSON_AND_ORGANIZATION_ASSIGNMENT ( #113, #12, ( #137 ) ) ;
#94 = CIRCLE ( 'NONE', #32, 3.250000000000000444 ) ;
#95 = ADVANCED_FACE ( 'NONE', ( #87 ), #230, .T. ) ;
#96 = DATE_TIME_ROLE ( 'creation_date' ) ;
#97 = DIRECTION ( 'NONE',  ( 1.000000000000000000, 0.000000000000000000, -0.000000000000000000 ) ) ;
#98 = DIRECTION ( 'NONE',  ( 0.000000000000000000, 0.000000000000000000, 1.000000000000000000 ) ) ;
#99 = APPROVAL_PERSON_ORGANIZATION ( #110, #10, #89 ) ;
#100 = ORIENTED_EDGE ( 'NONE', *, *, #170, .F. ) ;
#101 = DIRECTION ( 'NONE',  ( 1.000000000000000000, 0.000000000000000000, 0.000000000000000000 ) ) ;
#102 = PRODUCT ( '36d5', '36d5', '', ( #62 ) ) ;
#103 = DIRECTION ( 'NONE',  ( 0.000000000000000000, 0.000000000000000000, 1.000000000000000000 ) ) ;
#104 = ORIENTED_EDGE ( 'NONE', *, *, #231, .F. ) ;
#105 = APPLICATION_CONTEXT ( 'configuration controlled 3d designs of mechanical parts and assemblies' ) ;
#106 = EDGE_CURVE ( 'NONE', #67, #121, #255, .T. ) ;
#107 = CARTESIAN_POINT ( 'NONE',  ( 0.000000000000000000, 0.000000000000000000, 5.000000000000000000 ) ) ;
#108 = EDGE_CURVE ( 'NONE', #121, #67, #78, .T. ) ;
#109 = DIRECTION ( 'NONE',  ( 1.000000000000000000, 0.000000000000000000, 0.000000000000000000 ) ) ;
#110 = PERSON_AND_ORGANIZATION ( #173, #79 ) ;
#111 = DIRECTION ( 'NONE',  ( 0.000000000000000000, 0.000000000000000000, 1.000000000000000000 ) ) ;
#112 = ORIENTED_EDGE ( 'NONE', *, *, #139, .T. ) ;
#113 = PERSON_AND_ORGANIZATION ( #173, #79 ) ;
#114 = CC_DESIGN_PERSON_AND_ORGANIZATION_ASSIGNMENT ( #115, #81, ( #102 ) ) ;
#115 = PERSON_AND_ORGANIZATION ( #173, #79 ) ;
#116 = APPLICATION_PROTOCOL_DEFINITION ( 'international standard', 'config_control_design', 1994, #133 ) ;
#117 = ADVANCED_FACE ( 'NONE', ( #159, #28 ), #247, .T. ) ;
#118 = AXIS2_PLACEMENT_3D ( 'NONE', #125, #85, #27 ) ;
#119 = CARTESIAN_POINT ( 'NONE',  ( 0.000000000000000000, 0.000000000000000000, 0.000000000000000000 ) ) ;
#120 = VERTEX_POINT ( 'NONE', #226 ) ;
#121 = VERTEX_POINT ( 'NONE', #47 ) ;
#122 = AXIS2_PLACEMENT_3D ( 'NONE', #107, #73, #144 ) ;
#123 = CARTESIAN_POINT ( 'NONE',  ( 0.000000000000000000, 0.000000000000000000, 5.000000000000000000 ) ) ;
#124 = FACE_OUTER_BOUND ( 'NONE', #196, .T. ) ;
#125 = CARTESIAN_POINT ( 'NONE',  ( 0.000000000000000000, 0.000000000000000000, 400.0000000000000000 ) ) ;
#126 = CC_DESIGN_APPROVAL ( #135, ( #137 ) ) ;
#127 = ADVANCED_FACE ( 'NONE', ( #124 ), #180, .T. ) ;
#128 = DATE_AND_TIME ( #2, #217 ) ;
#129 = AXIS2_PLACEMENT_3D ( 'NONE', #149, #182, #109 ) ;
#130 = CARTESIAN_POINT ( 'NONE',  ( 3.250000000000000444, 3.980102097228897245E-16, 5.000000000000000000 ) ) ;
#131 = LINE ( 'NONE', #213, #141 ) ;
#132 = VERTEX_POINT ( 'NONE', #6 ) ;
#133 = APPLICATION_CONTEXT ( 'configuration controlled 3d designs of mechanical parts and assemblies' ) ;
#134 = EDGE_LOOP ( 'NONE', ( #38, #100 ) ) ;
#135 = APPROVAL ( #234, 'NEURÈENÝ' ) ;
#136 = ORIENTED_EDGE ( 'NONE', *, *, #207, .T. ) ;
#137 = PRODUCT_DEFINITION_FORMATION_WITH_SPECIFIED_SOURCE ( 'LIBOVOLNÝ', '', #102, .NOT_KNOWN. ) ;
#138 = DIRECTION ( 'NONE',  ( 0.000000000000000000, 0.000000000000000000, 1.000000000000000000 ) ) ;
#139 = EDGE_CURVE ( 'NONE', #121, #120, #243, .T. ) ;
#140 = VERTEX_POINT ( 'NONE', #235 ) ;
#141 = VECTOR ( 'NONE', #37, 1000.000000000000000 ) ;
#142 = APPROVAL_DATE_TIME ( #183, #10 ) ;
#143 = APPROVAL_PERSON_ORGANIZATION ( #58, #22, #18 ) ;
#144 = DIRECTION ( 'NONE',  ( 1.000000000000000000, 0.000000000000000000, -0.000000000000000000 ) ) ;
#145 = DIRECTION ( 'NONE',  ( -0.000000000000000000, -0.000000000000000000, -1.000000000000000000 ) ) ;
#146 = DIRECTION ( 'NONE',  ( 1.000000000000000000, 0.000000000000000000, 0.000000000000000000 ) ) ;
#147 = CIRCLE ( 'NONE', #129, 6.000000000000000888 ) ;
#148 = COORDINATED_UNIVERSAL_TIME_OFFSET ( 1, 0, .AHEAD. ) ;
#149 = CARTESIAN_POINT ( 'NONE',  ( 0.000000000000000000, 0.000000000000000000, 0.000000000000000000 ) ) ;
#150 = AXIS2_PLACEMENT_3D ( 'NONE', #161, #228, #146 ) ;
#151 = LOCAL_TIME ( 13, 7, 29.00000000000000000, #249 ) ;
#152 = CARTESIAN_POINT ( 'NONE',  ( 0.000000000000000000, 0.000000000000000000, 0.000000000000000000 ) ) ;
#153 = APPROVAL_STATUS ( 'not_yet_approved' ) ;
#154 = DIRECTION ( 'NONE',  ( -0.000000000000000000, -0.000000000000000000, -1.000000000000000000 ) ) ;
#155 = EDGE_LOOP ( 'NONE', ( #172, #84 ) ) ;
#156 = CARTESIAN_POINT ( 'NONE',  ( 0.000000000000000000, 0.000000000000000000, 5.000000000000000000 ) ) ;
#157 = ORIENTED_EDGE ( 'NONE', *, *, #186, .F. ) ;
#158 = APPROVAL_STATUS ( 'not_yet_approved' ) ;
#159 = FACE_BOUND ( 'NONE', #134, .T. ) ;
#160 = PERSON_AND_ORGANIZATION_ROLE ( 'classification_officer' ) ;
#161 = CARTESIAN_POINT ( 'NONE',  ( 0.000000000000000000, 0.000000000000000000, 0.000000000000000000 ) ) ;
#162 = CARTESIAN_POINT ( 'NONE',  ( 3.250000000000000444, 3.980102097228897245E-16, 400.0000000000000000 ) ) ;
#163 = AXIS2_PLACEMENT_3D ( 'NONE', #13, #138, #177 ) ;
#164 = PERSON_AND_ORGANIZATION ( #173, #79 ) ;
#165 = AXIS2_PLACEMENT_3D ( 'NONE', #152, #210, #97 ) ;
#166 = PERSON_AND_ORGANIZATION ( #173, #79 ) ;
#167 = COORDINATED_UNIVERSAL_TIME_OFFSET ( 1, 0, .AHEAD. ) ;
#168 = AXIS2_PLACEMENT_3D ( 'NONE', #83, #241, #68 ) ;
#169 = CARTESIAN_POINT ( 'NONE',  ( -3.250000000000000444, 0.000000000000000000, 400.0000000000000000 ) ) ;
#170 = EDGE_CURVE ( 'NONE', #198, #120, #232, .T. ) ;
#171 = DIRECTION ( 'NONE',  ( 1.000000000000000000, 0.000000000000000000, 0.000000000000000000 ) ) ;
#172 = ORIENTED_EDGE ( 'NONE', *, *, #108, .T. ) ;
#173 = PERSON ( 'NEURÈENÝ', 'NEURÈENÝ', 'NEURÈENÝ', ('NEURÈENÝ'), ('NEURÈENÝ'), ('NEURÈENÝ') ) ;
#174 = CC_DESIGN_SECURITY_CLASSIFICATION ( #20, ( #137 ) ) ;
#175 = EDGE_LOOP ( 'NONE', ( #92, #104, #136, #82 ) ) ;
#176 = SECURITY_CLASSIFICATION_LEVEL ( 'unclassified' ) ;
#177 = DIRECTION ( 'NONE',  ( 1.000000000000000000, 0.000000000000000000, 0.000000000000000000 ) ) ;
#178 = CARTESIAN_POINT ( 'NONE',  ( -6.000000000000000888, 0.000000000000000000, 5.000000000000000000 ) ) ;
#179 = DESIGN_CONTEXT ( 'detailed design', #105, 'design' ) ;
#180 = CYLINDRICAL_SURFACE ( 'NONE', #197, 3.250000000000000444 ) ;
#181 = CC_DESIGN_APPROVAL ( #22, ( #74 ) ) ;
#182 = DIRECTION ( 'NONE',  ( 0.000000000000000000, 0.000000000000000000, 1.000000000000000000 ) ) ;
#183 = DATE_AND_TIME ( #71, #39 ) ;
#184 = DIRECTION ( 'NONE',  ( -0.000000000000000000, -0.000000000000000000, -1.000000000000000000 ) ) ;
#185 = CALENDAR_DATE ( 2023, 12, 2 ) ;
#186 = EDGE_CURVE ( 'NONE', #252, #24, #223, .T. ) ;
#187 = CLOSED_SHELL ( 'NONE', ( #95, #227, #88, #117, #253, #127, #57 ) ) ;
#188 =( NAMED_UNIT ( * ) SI_UNIT ( $, .STERADIAN. ) SOLID_ANGLE_UNIT ( ) );
#189 = COORDINATED_UNIVERSAL_TIME_OFFSET ( 1, 0, .AHEAD. ) ;
#190 = ORIENTED_EDGE ( 'NONE', *, *, #219, .T. ) ;
#191 = DIRECTION ( 'NONE',  ( -1.000000000000000000, 0.000000000000000000, 0.000000000000000000 ) ) ;
#192 = AXIS2_PLACEMENT_3D ( 'NONE', #31, #111, #199 ) ;
#193 = CARTESIAN_POINT ( 'NONE',  ( 0.000000000000000000, 0.000000000000000000, 400.0000000000000000 ) ) ;
#194 = DIRECTION ( 'NONE',  ( 0.000000000000000000, 0.000000000000000000, 1.000000000000000000 ) ) ;
#195 = EDGE_LOOP ( 'NONE', ( #41, #7, #61, #25 ) ) ;
#196 = EDGE_LOOP ( 'NONE', ( #8, #214, #112, #190 ) ) ;
#197 = AXIS2_PLACEMENT_3D ( 'NONE', #193, #154, #220 ) ;
#198 = VERTEX_POINT ( 'NONE', #130 ) ;
#199 = DIRECTION ( 'NONE',  ( 1.000000000000000000, 0.000000000000000000, 0.000000000000000000 ) ) ;
#200 = DIRECTION ( 'NONE',  ( -1.000000000000000000, 0.000000000000000000, 0.000000000000000000 ) ) ;
#201 = CALENDAR_DATE ( 2023, 12, 2 ) ;
#202 = AXIS2_PLACEMENT_3D ( 'NONE', #23, #233, #191 ) ;
#203 = DIRECTION ( 'NONE',  ( -0.000000000000000000, -0.000000000000000000, -1.000000000000000000 ) ) ;
#204 = CC_DESIGN_PERSON_AND_ORGANIZATION_ASSIGNMENT ( #166, #16, ( #74 ) ) ;
#205 = LOCAL_TIME ( 13, 7, 29.00000000000000000, #167 ) ;
#206 = AXIS2_PLACEMENT_3D ( 'NONE', #33, #98, #239 ) ;
#207 = EDGE_CURVE ( 'NONE', #24, #132, #131, .T. ) ;
#208 = PRODUCT_DEFINITION_SHAPE ( 'NONE', 'NONE',  #74 ) ;
#209 = PERSON_AND_ORGANIZATION ( #173, #79 ) ;
#210 = DIRECTION ( 'NONE',  ( 0.000000000000000000, 0.000000000000000000, 1.000000000000000000 ) ) ;
#211 = APPROVAL_ROLE ( '' ) ;
#212 = APPLICATION_PROTOCOL_DEFINITION ( 'international standard', 'config_control_design', 1994, #105 ) ;
#213 = CARTESIAN_POINT ( 'NONE',  ( -6.000000000000000888, 0.000000000000000000, 5.000000000000000000 ) ) ;
#214 = ORIENTED_EDGE ( 'NONE', *, *, #108, .F. ) ;
#215 =( NAMED_UNIT ( * ) PLANE_ANGLE_UNIT ( ) SI_UNIT ( $, .RADIAN. ) );
#216 = AXIS2_PLACEMENT_3D ( 'NONE', #244, #103, #171 ) ;
#217 = LOCAL_TIME ( 13, 7, 29.00000000000000000, #189 ) ;
#218 = CYLINDRICAL_SURFACE ( 'NONE', #202, 6.000000000000000888 ) ;
#219 = EDGE_CURVE ( 'NONE', #120, #198, #94, .T. ) ;
#220 = DIRECTION ( 'NONE',  ( -1.000000000000000000, 0.000000000000000000, 0.000000000000000000 ) ) ;
#221 = EDGE_LOOP ( 'NONE', ( #65, #5 ) ) ;
#222 = PERSON_AND_ORGANIZATION ( #173, #79 ) ;
#223 = CIRCLE ( 'NONE', #216, 6.000000000000000888 ) ;
#224 = CARTESIAN_POINT ( 'NONE',  ( 6.000000000000000888, 7.347880794884120722E-16, 5.000000000000000000 ) ) ;
#225 = ORIENTED_EDGE ( 'NONE', *, *, #231, .T. ) ;
#226 = CARTESIAN_POINT ( 'NONE',  ( -3.250000000000000444, 0.000000000000000000, 5.000000000000000000 ) ) ;
#227 = ADVANCED_FACE ( 'NONE', ( #64 ), #218, .T. ) ;
#228 = DIRECTION ( 'NONE',  ( 0.000000000000000000, 0.000000000000000000, 1.000000000000000000 ) ) ;
#229 = VECTOR ( 'NONE', #145, 1000.000000000000000 ) ;
#230 = CYLINDRICAL_SURFACE ( 'NONE', #118, 3.250000000000000444 ) ;
#231 = EDGE_CURVE ( 'NONE', #24, #252, #72, .T. ) ;
#232 = CIRCLE ( 'NONE', #168, 3.250000000000000444 ) ;
#233 = DIRECTION ( 'NONE',  ( -0.000000000000000000, -0.000000000000000000, -1.000000000000000000 ) ) ;
#234 = APPROVAL_STATUS ( 'not_yet_approved' ) ;
#235 = CARTESIAN_POINT ( 'NONE',  ( 6.000000000000000888, 7.347880794884120722E-16, 0.000000000000000000 ) ) ;
#236 = ORIENTED_EDGE ( 'NONE', *, *, #66, .T. ) ;
#237 = DIRECTION ( 'NONE',  ( 1.000000000000000000, 0.000000000000000000, 0.000000000000000000 ) ) ;
#238 = EDGE_LOOP ( 'NONE', ( #157, #242, #236, #245 ) ) ;
#239 = DIRECTION ( 'NONE',  ( 1.000000000000000000, 0.000000000000000000, 0.000000000000000000 ) ) ;
#240 = CC_DESIGN_APPROVAL ( #10, ( #20 ) ) ;
#241 = DIRECTION ( 'NONE',  ( 0.000000000000000000, 0.000000000000000000, 1.000000000000000000 ) ) ;
#242 = ORIENTED_EDGE ( 'NONE', *, *, #63, .T. ) ;
#243 = LINE ( 'NONE', #169, #42 ) ;
#244 = CARTESIAN_POINT ( 'NONE',  ( 0.000000000000000000, 0.000000000000000000, 5.000000000000000000 ) ) ;
#245 = ORIENTED_EDGE ( 'NONE', *, *, #207, .F. ) ;
#246 = LOCAL_TIME ( 13, 7, 29.00000000000000000, #35 ) ;
#247 = PLANE ( 'NONE',  #122 ) ;
#248 = FACE_OUTER_BOUND ( 'NONE', #155, .T. ) ;
#249 = COORDINATED_UNIVERSAL_TIME_OFFSET ( 1, 0, .AHEAD. ) ;
#250 = APPROVAL_DATE_TIME ( #51, #135 ) ;
#251 = FACE_OUTER_BOUND ( 'NONE', #175, .T. ) ;
#252 = VERTEX_POINT ( 'NONE', #59 ) ;
#253 = ADVANCED_FACE ( 'NONE', ( #36 ), #17, .F. ) ;
#254 = PERSON_AND_ORGANIZATION_ROLE ( 'creator' ) ;
#255 = CIRCLE ( 'NONE', #192, 3.250000000000000444 ) ;
ENDSEC;
END-ISO-10303-21;
