ISO-10303-21;
HEADER;
FILE_DESCRIPTION (( 'STEP AP203' ),
    '1' );
FILE_NAME ('d594.STEP',
    '2022-07-07T10:06:28',
    ( '' ),
    ( '' ),
    'SwSTEP 2.0',
    'SolidWorks 2019',
    '' );
FILE_SCHEMA (( 'CONFIG_CONTROL_DESIGN' ));
ENDSEC;

DATA;
#1 = DIRECTION ( 'NONE',  ( 0.000000000000000000, 0.000000000000000000, 1.000000000000000000 ) ) ;
#2 = FACE_OUTER_BOUND ( 'NONE', #251, .T. ) ;
#3 = EDGE_CURVE ( 'NONE', #125, #9, #156, .T. ) ;
#4 = APPLICATION_PROTOCOL_DEFINITION ( 'international standard', 'config_control_design', 1994, #196 ) ;
#5 = CIRCLE ( 'NONE', #257, 0.1999999999999996503 ) ;
#6 = DIRECTION ( 'NONE',  ( 0.000000000000000000, 0.000000000000000000, -1.000000000000000000 ) ) ;
#7 = CIRCLE ( 'NONE', #178, 3.500000000000000000 ) ;
#8 = ORIENTED_EDGE ( 'NONE', *, *, #214, .T. ) ;
#9 = VERTEX_POINT ( 'NONE', #261 ) ;
#10 = APPROVAL_DATE_TIME ( #301, #224 ) ;
#11 = ORIENTED_EDGE ( 'NONE', *, *, #29, .T. ) ;
#12 = ADVANCED_BREP_SHAPE_REPRESENTATION ( 'd594', ( #107, #22 ), #287 ) ;
#13 = ORIENTED_EDGE ( 'NONE', *, *, #144, .T. ) ;
#14 = LOCAL_TIME ( 12, 6, 28.00000000000000000, #56 ) ;
#15 = PERSON_AND_ORGANIZATION ( #133, #231 ) ;
#16 = ORIENTED_EDGE ( 'NONE', *, *, #241, .T. ) ;
#17 = APPROVAL_STATUS ( 'not_yet_approved' ) ;
#18 = VERTEX_POINT ( 'NONE', #87 ) ;
#19 = DATE_TIME_ROLE ( 'creation_date' ) ;
#20 = DIRECTION ( 'NONE',  ( -0.000000000000000000, -0.000000000000000000, -1.000000000000000000 ) ) ;
#21 = APPROVAL ( #244, 'NEURÈENÝ' ) ;
#22 = AXIS2_PLACEMENT_3D ( 'NONE', #266, #99, #240 ) ;
#23 = CARTESIAN_POINT ( 'NONE',  ( 0.000000000000000000, 0.000000000000000000, 0.000000000000000000 ) ) ;
#24 = DIRECTION ( 'NONE',  ( 1.000000000000000000, 0.000000000000000000, 0.000000000000000000 ) ) ;
#25 = AXIS2_PLACEMENT_3D ( 'NONE', #114, #264, #88 ) ;
#26 = ADVANCED_FACE ( 'NONE', ( #110 ), #112, .T. ) ;
#27 = APPLICATION_PROTOCOL_DEFINITION ( 'international standard', 'config_control_design', 1994, #267 ) ;
#28 = DIRECTION ( 'NONE',  ( -1.000000000000000000, 0.000000000000000000, 0.000000000000000000 ) ) ;
#29 = EDGE_CURVE ( 'NONE', #85, #37, #132, .T. ) ;
#30 = DIRECTION ( 'NONE',  ( 1.000000000000000000, 0.000000000000000000, -0.000000000000000000 ) ) ;
#31 = LOCAL_TIME ( 12, 6, 28.00000000000000000, #120 ) ;
#32 = DIRECTION ( 'NONE',  ( -0.000000000000000000, -0.000000000000000000, -1.000000000000000000 ) ) ;
#33 = VERTEX_POINT ( 'NONE', #183 ) ;
#34 = CIRCLE ( 'NONE', #119, 6.000000000000000888 ) ;
#35 = ORIENTED_EDGE ( 'NONE', *, *, #101, .F. ) ;
#36 = DATE_AND_TIME ( #256, #67 ) ;
#37 = VERTEX_POINT ( 'NONE', #280 ) ;
#38 = ORIENTED_EDGE ( 'NONE', *, *, #184, .T. ) ;
#39 = CC_DESIGN_SECURITY_CLASSIFICATION ( #53, ( #246 ) ) ;
#40 = DIRECTION ( 'NONE',  ( 1.000000000000000000, 0.000000000000000000, 0.000000000000000000 ) ) ;
#41 = CARTESIAN_POINT ( 'NONE',  ( 0.000000000000000000, 0.000000000000000000, 5.000000000000000000 ) ) ;
#42 = VERTEX_POINT ( 'NONE', #262 ) ;
#43 = CIRCLE ( 'NONE', #263, 3.700000000000000178 ) ;
#44 = FACE_OUTER_BOUND ( 'NONE', #170, .T. ) ;
#45 = DIRECTION ( 'NONE',  ( -0.000000000000000000, -0.000000000000000000, -1.000000000000000000 ) ) ;
#46 = DIRECTION ( 'NONE',  ( 1.000000000000000000, 0.000000000000000000, 0.000000000000000000 ) ) ;
#47 = VECTOR ( 'NONE', #68, 1000.000000000000000 ) ;
#48 = CARTESIAN_POINT ( 'NONE',  ( 0.000000000000000000, 0.000000000000000000, 505.0000000000000000 ) ) ;
#49 = ADVANCED_FACE ( 'NONE', ( #236 ), #60, .T. ) ;
#50 = DIRECTION ( 'NONE',  ( -0.000000000000000000, -0.000000000000000000, -1.000000000000000000 ) ) ;
#51 = CARTESIAN_POINT ( 'NONE',  ( 0.000000000000000000, 0.000000000000000000, 5.000000000000000000 ) ) ;
#52 = APPROVAL_ROLE ( '' ) ;
#53 = SECURITY_CLASSIFICATION ( '', '', #177 ) ;
#54 = PRODUCT ( 'd594', 'd594', '', ( #141 ) ) ;
#55 = ORIENTED_EDGE ( 'NONE', *, *, #229, .T. ) ;
#56 = COORDINATED_UNIVERSAL_TIME_OFFSET ( 1, 0, .AHEAD. ) ;
#57 = EDGE_CURVE ( 'NONE', #80, #37, #34, .T. ) ;
#58 = ORIENTED_EDGE ( 'NONE', *, *, #82, .F. ) ;
#59 = ORIENTED_EDGE ( 'NONE', *, *, #214, .F. ) ;
#60 = CYLINDRICAL_SURFACE ( 'NONE', #250, 3.500000000000000000 ) ;
#61 = CIRCLE ( 'NONE', #220, 3.500000000000000000 ) ;
#62 = COORDINATED_UNIVERSAL_TIME_OFFSET ( 1, 0, .AHEAD. ) ;
#63 = ORIENTED_EDGE ( 'NONE', *, *, #3, .T. ) ;
#64 = CC_DESIGN_PERSON_AND_ORGANIZATION_ASSIGNMENT ( #281, #225, ( #246 ) ) ;
#65 = DIRECTION ( 'NONE',  ( -0.000000000000000000, -0.000000000000000000, -1.000000000000000000 ) ) ;
#66 = DIRECTION ( 'NONE',  ( -1.000000000000000000, 0.000000000000000000, 0.000000000000000000 ) ) ;
#67 = LOCAL_TIME ( 12, 6, 28.00000000000000000, #62 ) ;
#68 = DIRECTION ( 'NONE',  ( -0.000000000000000000, -0.000000000000000000, -1.000000000000000000 ) ) ;
#69 = CARTESIAN_POINT ( 'NONE',  ( 0.000000000000000000, 0.000000000000000000, 5.000000000000000000 ) ) ;
#70 =( LENGTH_UNIT ( ) NAMED_UNIT ( * ) SI_UNIT ( .MILLI., .METRE. ) );
#71 = CARTESIAN_POINT ( 'NONE',  ( -3.500000000000000000, 0.000000000000000000, 505.0000000000000000 ) ) ;
#72 = ADVANCED_FACE ( 'NONE', ( #113, #44 ), #306, .T. ) ;
#73 = PERSON_AND_ORGANIZATION ( #133, #231 ) ;
#74 = DIRECTION ( 'NONE',  ( 0.000000000000000000, 0.000000000000000000, 1.000000000000000000 ) ) ;
#75 = DIRECTION ( 'NONE',  ( 0.000000000000000000, 0.000000000000000000, 1.000000000000000000 ) ) ;
#76 = AXIS2_PLACEMENT_3D ( 'NONE', #100, #212, #146 ) ;
#77 = CC_DESIGN_DATE_AND_TIME_ASSIGNMENT ( #200, #158, ( #53 ) ) ;
#78 = EDGE_LOOP ( 'NONE', ( #122, #208, #8, #58 ) ) ;
#79 = ORIENTED_EDGE ( 'NONE', *, *, #82, .T. ) ;
#80 = VERTEX_POINT ( 'NONE', #230 ) ;
#81 = PERSON_AND_ORGANIZATION_ROLE ( 'classification_officer' ) ;
#82 = EDGE_CURVE ( 'NONE', #226, #18, #143, .T. ) ;
#83 = VECTOR ( 'NONE', #193, 1000.000000000000000 ) ;
#84 = CALENDAR_DATE ( 2022, 7, 7 ) ;
#85 = VERTEX_POINT ( 'NONE', #157 ) ;
#86 = PERSON_AND_ORGANIZATION ( #133, #231 ) ;
#87 = CARTESIAN_POINT ( 'NONE',  ( 3.700000000000000178, 0.000000000000000000, 4.999999999999991118 ) ) ;
#88 = DIRECTION ( 'NONE',  ( 1.000000000000000000, 0.000000000000000000, 0.000000000000000000 ) ) ;
#89 = AXIS2_PLACEMENT_3D ( 'NONE', #228, #94, #40 ) ;
#90 = CC_DESIGN_PERSON_AND_ORGANIZATION_ASSIGNMENT ( #73, #145, ( #54 ) ) ;
#91 = CARTESIAN_POINT ( 'NONE',  ( 0.000000000000000000, 0.000000000000000000, 0.000000000000000000 ) ) ;
#92 = DIRECTION ( 'NONE',  ( 0.000000000000000000, 0.000000000000000000, 1.000000000000000000 ) ) ;
#93 = PRODUCT_DEFINITION ( 'NEZNÁMÝ', '', #246, #233 ) ;
#94 = DIRECTION ( 'NONE',  ( 0.000000000000000000, 0.000000000000000000, 1.000000000000000000 ) ) ;
#95 = LOCAL_TIME ( 12, 6, 28.00000000000000000, #106 ) ;
#96 = CARTESIAN_POINT ( 'NONE',  ( -3.700000000000000178, 4.531193156845206201E-16, 5.199999999999982414 ) ) ;
#97 = DIRECTION ( 'NONE',  ( 1.000000000000000000, 0.000000000000000000, 0.000000000000000000 ) ) ;
#98 = VECTOR ( 'NONE', #50, 1000.000000000000000 ) ;
#99 = DIRECTION ( 'NONE',  ( 0.000000000000000000, 0.000000000000000000, 1.000000000000000000 ) ) ;
#100 = CARTESIAN_POINT ( 'NONE',  ( 0.000000000000000000, 0.000000000000000000, 5.000000000000000000 ) ) ;
#101 = EDGE_CURVE ( 'NONE', #37, #80, #268, .T. ) ;
#102 = ORIENTED_EDGE ( 'NONE', *, *, #184, .F. ) ;
#103 = CC_DESIGN_PERSON_AND_ORGANIZATION_ASSIGNMENT ( #298, #81, ( #53 ) ) ;
#104 = APPROVAL_STATUS ( 'not_yet_approved' ) ;
#105 = ORIENTED_EDGE ( 'NONE', *, *, #247, .T. ) ;
#106 = COORDINATED_UNIVERSAL_TIME_OFFSET ( 1, 0, .AHEAD. ) ;
#107 = MANIFOLD_SOLID_BREP ( 'Zaoblit1', #137 ) ;
#108 = AXIS2_PLACEMENT_3D ( 'NONE', #91, #203, #302 ) ;
#109 = ORIENTED_EDGE ( 'NONE', *, *, #131, .F. ) ;
#110 = FACE_OUTER_BOUND ( 'NONE', #150, .T. ) ;
#111 = SHAPE_DEFINITION_REPRESENTATION ( #274, #12 ) ;
#112 = CYLINDRICAL_SURFACE ( 'NONE', #276, 6.000000000000000888 ) ;
#113 = FACE_BOUND ( 'NONE', #172, .T. ) ;
#114 = CARTESIAN_POINT ( 'NONE',  ( 0.000000000000000000, 0.000000000000000000, 5.199999999999982414 ) ) ;
#115 = CC_DESIGN_APPROVAL ( #273, ( #246 ) ) ;
#116 = APPROVAL_ROLE ( '' ) ;
#117 = CC_DESIGN_PERSON_AND_ORGANIZATION_ASSIGNMENT ( #15, #296, ( #93 ) ) ;
#118 = CARTESIAN_POINT ( 'NONE',  ( 3.700000000000000178, 0.000000000000000000, 5.199999999999982414 ) ) ;
#119 = AXIS2_PLACEMENT_3D ( 'NONE', #23, #92, #24 ) ;
#120 = COORDINATED_UNIVERSAL_TIME_OFFSET ( 1, 0, .AHEAD. ) ;
#121 = LINE ( 'NONE', #218, #83 ) ;
#122 = ORIENTED_EDGE ( 'NONE', *, *, #180, .F. ) ;
#123 = ADVANCED_FACE ( 'NONE', ( #304 ), #161, .T. ) ;
#124 = ORIENTED_EDGE ( 'NONE', *, *, #247, .F. ) ;
#125 = VERTEX_POINT ( 'NONE', #163 ) ;
#126 = APPROVAL_DATE_TIME ( #202, #21 ) ;
#127 = AXIS2_PLACEMENT_3D ( 'NONE', #48, #243, #28 ) ;
#128 = AXIS2_PLACEMENT_3D ( 'NONE', #265, #181, #283 ) ;
#129 = ORIENTED_EDGE ( 'NONE', *, *, #180, .T. ) ;
#130 = CALENDAR_DATE ( 2022, 7, 7 ) ;
#131 = EDGE_CURVE ( 'NONE', #42, #33, #303, .T. ) ;
#132 = LINE ( 'NONE', #284, #307 ) ;
#133 = PERSON ( 'NEURÈENÝ', 'NEURÈENÝ', 'NEURÈENÝ', ('NEURÈENÝ'), ('NEURÈENÝ'), ('NEURÈENÝ') ) ;
#134 = DIRECTION ( 'NONE',  ( 1.000000000000000000, 0.000000000000000000, -0.000000000000000000 ) ) ;
#135 = DIRECTION ( 'NONE',  ( 0.000000000000000000, 0.000000000000000000, 1.000000000000000000 ) ) ;
#136 = ADVANCED_FACE ( 'NONE', ( #138 ), #165, .F. ) ;
#137 = CLOSED_SHELL ( 'NONE', ( #260, #49, #26, #123, #72, #136, #209, #285, #148 ) ) ;
#138 = FACE_OUTER_BOUND ( 'NONE', #294, .T. ) ;
#139 =( NAMED_UNIT ( * ) SI_UNIT ( $, .STERADIAN. ) SOLID_ANGLE_UNIT ( ) );
#140 = DIRECTION ( 'NONE',  ( -0.000000000000000000, -0.000000000000000000, -1.000000000000000000 ) ) ;
#141 = MECHANICAL_CONTEXT ( 'NONE', #196, 'mechanical' ) ;
#142 = DIRECTION ( 'NONE',  ( -1.000000000000000000, 1.224646799147350742E-16, 0.000000000000000000 ) ) ;
#143 = CIRCLE ( 'NONE', #291, 3.700000000000000178 ) ;
#144 = EDGE_CURVE ( 'NONE', #174, #85, #152, .T. ) ;
#145 = PERSON_AND_ORGANIZATION_ROLE ( 'design_owner' ) ;
#146 = DIRECTION ( 'NONE',  ( 1.000000000000000000, 0.000000000000000000, 0.000000000000000000 ) ) ;
#147 = DIRECTION ( 'NONE',  ( 1.000000000000000000, 0.000000000000000000, 0.000000000000000000 ) ) ;
#148 = ADVANCED_FACE ( 'NONE', ( #232 ), #282, .F. ) ;
#149 = APPROVAL_PERSON_ORGANIZATION ( #195, #273, #278 ) ;
#150 = EDGE_LOOP ( 'NONE', ( #189, #105, #192, #253 ) ) ;
#151 = ORIENTED_EDGE ( 'NONE', *, *, #173, .F. ) ;
#152 = CIRCLE ( 'NONE', #128, 6.000000000000000888 ) ;
#153 = CC_DESIGN_APPROVAL ( #224, ( #53 ) ) ;
#154 = FACE_OUTER_BOUND ( 'NONE', #249, .T. ) ;
#155 = DATE_AND_TIME ( #227, #14 ) ;
#156 = CIRCLE ( 'NONE', #89, 3.500000000000000000 ) ;
#157 = CARTESIAN_POINT ( 'NONE',  ( -6.000000000000000888, 0.000000000000000000, 5.000000000000000000 ) ) ;
#158 = DATE_TIME_ROLE ( 'classification_date' ) ;
#159 = CARTESIAN_POINT ( 'NONE',  ( 0.000000000000000000, 0.000000000000000000, 505.0000000000000000 ) ) ;
#160 = CC_DESIGN_PERSON_AND_ORGANIZATION_ASSIGNMENT ( #86, #252, ( #246 ) ) ;
#161 = CYLINDRICAL_SURFACE ( 'NONE', #271, 6.000000000000000888 ) ;
#162 = UNCERTAINTY_MEASURE_WITH_UNIT (LENGTH_MEASURE( 1.000000000000000082E-05 ), #70, 'distance_accuracy_value', 'NONE');
#163 = CARTESIAN_POINT ( 'NONE',  ( -3.500000000000000000, 0.000000000000000000, 505.0000000000000000 ) ) ;
#164 = APPROVAL_PERSON_ORGANIZATION ( #242, #21, #116 ) ;
#165 = PLANE ( 'NONE',  #108 ) ;
#166 = DIRECTION ( 'NONE',  ( 0.000000000000000000, 0.000000000000000000, 1.000000000000000000 ) ) ;
#167 = CARTESIAN_POINT ( 'NONE',  ( 0.000000000000000000, 0.000000000000000000, 5.199999999999982414 ) ) ;
#168 = AXIS2_PLACEMENT_3D ( 'NONE', #69, #305, #134 ) ;
#169 = PRODUCT_RELATED_PRODUCT_CATEGORY ( 'detail', '', ( #54 ) ) ;
#170 = EDGE_LOOP ( 'NONE', ( #221, #13 ) ) ;
#171 = AXIS2_PLACEMENT_3D ( 'NONE', #288, #135, #201 ) ;
#172 = EDGE_LOOP ( 'NONE', ( #16, #79 ) ) ;
#173 = EDGE_CURVE ( 'NONE', #9, #125, #7, .T. ) ;
#174 = VERTEX_POINT ( 'NONE', #269 ) ;
#175 = PERSON_AND_ORGANIZATION ( #133, #231 ) ;
#176 = ORIENTED_EDGE ( 'NONE', *, *, #57, .F. ) ;
#177 = SECURITY_CLASSIFICATION_LEVEL ( 'unclassified' ) ;
#178 = AXIS2_PLACEMENT_3D ( 'NONE', #159, #166, #289 ) ;
#179 = DIRECTION ( 'NONE',  ( -1.000000000000000000, 0.000000000000000000, 0.000000000000000000 ) ) ;
#180 = EDGE_CURVE ( 'NONE', #42, #226, #211, .T. ) ;
#181 = DIRECTION ( 'NONE',  ( 0.000000000000000000, 0.000000000000000000, 1.000000000000000000 ) ) ;
#182 = DIRECTION ( 'NONE',  ( 1.000000000000000000, 0.000000000000000000, 0.000000000000000000 ) ) ;
#183 = CARTESIAN_POINT ( 'NONE',  ( 3.500000000000000000, 4.286263797015736595E-16, 5.199999999999982414 ) ) ;
#184 = EDGE_CURVE ( 'NONE', #9, #33, #239, .T. ) ;
#185 = CYLINDRICAL_SURFACE ( 'NONE', #127, 3.500000000000000000 ) ;
#186 = CIRCLE ( 'NONE', #76, 6.000000000000000888 ) ;
#187 = CARTESIAN_POINT ( 'NONE',  ( -3.700000000000000178, 4.531193156845206201E-16, 4.999999999999991118 ) ) ;
#188 = CARTESIAN_POINT ( 'NONE',  ( 3.500000000000000000, 4.286263797015736595E-16, 505.0000000000000000 ) ) ;
#189 = ORIENTED_EDGE ( 'NONE', *, *, #144, .F. ) ;
#190 = AXIS2_PLACEMENT_3D ( 'NONE', #234, #75, #97 ) ;
#191 = EDGE_CURVE ( 'NONE', #85, #174, #186, .T. ) ;
#192 = ORIENTED_EDGE ( 'NONE', *, *, #57, .T. ) ;
#193 = DIRECTION ( 'NONE',  ( -0.000000000000000000, -0.000000000000000000, -1.000000000000000000 ) ) ;
#194 = EDGE_LOOP ( 'NONE', ( #151, #38, #55, #197 ) ) ;
#195 = PERSON_AND_ORGANIZATION ( #133, #231 ) ;
#196 = APPLICATION_CONTEXT ( 'configuration controlled 3d designs of mechanical parts and assemblies' ) ;
#197 = ORIENTED_EDGE ( 'NONE', *, *, #299, .F. ) ;
#198 = CC_DESIGN_APPROVAL ( #21, ( #93 ) ) ;
#199 = ORIENTED_EDGE ( 'NONE', *, *, #101, .T. ) ;
#200 = DATE_AND_TIME ( #130, #95 ) ;
#201 = DIRECTION ( 'NONE',  ( 1.000000000000000000, 0.000000000000000000, 0.000000000000000000 ) ) ;
#202 = DATE_AND_TIME ( #222, #31 ) ;
#203 = DIRECTION ( 'NONE',  ( 0.000000000000000000, 0.000000000000000000, 1.000000000000000000 ) ) ;
#204 = TOROIDAL_SURFACE ( 'NONE', #238, 3.700000000000000178, 0.2000000000000000111 ) ;
#205 = CARTESIAN_POINT ( 'NONE',  ( 0.000000000000000000, 0.000000000000000000, 5.000000000000000000 ) ) ;
#206 = FACE_OUTER_BOUND ( 'NONE', #297, .T. ) ;
#207 = CARTESIAN_POINT ( 'NONE',  ( 0.000000000000000000, 0.000000000000000000, 505.0000000000000000 ) ) ;
#208 = ORIENTED_EDGE ( 'NONE', *, *, #229, .F. ) ;
#209 = ADVANCED_FACE ( 'NONE', ( #2 ), #185, .T. ) ;
#210 = PLANE ( 'NONE',  #217 ) ;
#211 = CIRCLE ( 'NONE', #295, 0.2000000000000000944 ) ;
#212 = DIRECTION ( 'NONE',  ( 0.000000000000000000, 0.000000000000000000, 1.000000000000000000 ) ) ;
#213 =( NAMED_UNIT ( * ) PLANE_ANGLE_UNIT ( ) SI_UNIT ( $, .RADIAN. ) );
#214 = EDGE_CURVE ( 'NONE', #33, #18, #5, .T. ) ;
#215 = DIRECTION ( 'NONE',  ( 0.000000000000000000, 0.000000000000000000, 1.000000000000000000 ) ) ;
#216 = DIRECTION ( 'NONE',  ( 0.000000000000000000, -1.000000000000000000, 0.000000000000000000 ) ) ;
#217 = AXIS2_PLACEMENT_3D ( 'NONE', #237, #1, #30 ) ;
#218 = CARTESIAN_POINT ( 'NONE',  ( 6.000000000000000888, 7.347880794884120722E-16, 5.000000000000000000 ) ) ;
#219 = ORIENTED_EDGE ( 'NONE', *, *, #299, .T. ) ;
#220 = AXIS2_PLACEMENT_3D ( 'NONE', #290, #74, #270 ) ;
#221 = ORIENTED_EDGE ( 'NONE', *, *, #191, .T. ) ;
#222 = CALENDAR_DATE ( 2022, 7, 7 ) ;
#223 = ORIENTED_EDGE ( 'NONE', *, *, #173, .T. ) ;
#224 = APPROVAL ( #17, 'NEURÈENÝ' ) ;
#225 = PERSON_AND_ORGANIZATION_ROLE ( 'creator' ) ;
#226 = VERTEX_POINT ( 'NONE', #187 ) ;
#227 = CALENDAR_DATE ( 2022, 7, 7 ) ;
#228 = CARTESIAN_POINT ( 'NONE',  ( 0.000000000000000000, 0.000000000000000000, 505.0000000000000000 ) ) ;
#229 = EDGE_CURVE ( 'NONE', #33, #42, #61, .T. ) ;
#230 = CARTESIAN_POINT ( 'NONE',  ( 6.000000000000000888, 7.347880794884120722E-16, 0.000000000000000000 ) ) ;
#231 = ORGANIZATION ( 'NEURÈENÝ', 'NEURÈENÝ', '' ) ;
#232 = FACE_OUTER_BOUND ( 'NONE', #78, .T. ) ;
#233 = DESIGN_CONTEXT ( 'detailed design', #267, 'design' ) ;
#234 = CARTESIAN_POINT ( 'NONE',  ( 0.000000000000000000, 0.000000000000000000, 5.199999999999982414 ) ) ;
#235 = LINE ( 'NONE', #71, #47 ) ;
#236 = FACE_OUTER_BOUND ( 'NONE', #194, .T. ) ;
#237 = CARTESIAN_POINT ( 'NONE',  ( 0.000000000000000000, 0.000000000000000000, 505.0000000000000000 ) ) ;
#238 = AXIS2_PLACEMENT_3D ( 'NONE', #167, #215, #46 ) ;
#239 = LINE ( 'NONE', #188, #98 ) ;
#240 = DIRECTION ( 'NONE',  ( 1.000000000000000000, 0.000000000000000000, 0.000000000000000000 ) ) ;
#241 = EDGE_CURVE ( 'NONE', #18, #226, #43, .T. ) ;
#242 = PERSON_AND_ORGANIZATION ( #133, #231 ) ;
#243 = DIRECTION ( 'NONE',  ( -0.000000000000000000, -0.000000000000000000, -1.000000000000000000 ) ) ;
#244 = APPROVAL_STATUS ( 'not_yet_approved' ) ;
#245 = DIRECTION ( 'NONE',  ( 1.224646799147353207E-16, 1.000000000000000000, -0.000000000000000000 ) ) ;
#246 = PRODUCT_DEFINITION_FORMATION_WITH_SPECIFIED_SOURCE ( 'LIBOVOLNÝ', '', #54, .NOT_KNOWN. ) ;
#247 = EDGE_CURVE ( 'NONE', #174, #80, #121, .T. ) ;
#248 = ORIENTED_EDGE ( 'NONE', *, *, #3, .F. ) ;
#249 = EDGE_LOOP ( 'NONE', ( #109, #129, #275, #59 ) ) ;
#250 = AXIS2_PLACEMENT_3D ( 'NONE', #207, #65, #179 ) ;
#251 = EDGE_LOOP ( 'NONE', ( #102, #248, #219, #277 ) ) ;
#252 = PERSON_AND_ORGANIZATION_ROLE ( 'design_supplier' ) ;
#253 = ORIENTED_EDGE ( 'NONE', *, *, #29, .F. ) ;
#254 = APPROVAL_DATE_TIME ( #155, #273 ) ;
#255 = EDGE_LOOP ( 'NONE', ( #124, #292, #11, #199 ) ) ;
#256 = CALENDAR_DATE ( 2022, 7, 7 ) ;
#257 = AXIS2_PLACEMENT_3D ( 'NONE', #118, #216, #6 ) ;
#258 = LOCAL_TIME ( 12, 6, 28.00000000000000000, #279 ) ;
#259 = DIRECTION ( 'NONE',  ( -0.000000000000000000, -0.000000000000000000, -1.000000000000000000 ) ) ;
#260 = ADVANCED_FACE ( 'NONE', ( #154 ), #204, .F. ) ;
#261 = CARTESIAN_POINT ( 'NONE',  ( 3.500000000000000000, 4.286263797015736595E-16, 505.0000000000000000 ) ) ;
#262 = CARTESIAN_POINT ( 'NONE',  ( -3.500000000000000000, 0.000000000000000000, 5.199999999999982414 ) ) ;
#263 = AXIS2_PLACEMENT_3D ( 'NONE', #51, #32, #147 ) ;
#264 = DIRECTION ( 'NONE',  ( 0.000000000000000000, 0.000000000000000000, 1.000000000000000000 ) ) ;
#265 = CARTESIAN_POINT ( 'NONE',  ( 0.000000000000000000, 0.000000000000000000, 5.000000000000000000 ) ) ;
#266 = CARTESIAN_POINT ( 'NONE',  ( 0.000000000000000000, 0.000000000000000000, 0.000000000000000000 ) ) ;
#267 = APPLICATION_CONTEXT ( 'configuration controlled 3d designs of mechanical parts and assemblies' ) ;
#268 = CIRCLE ( 'NONE', #171, 6.000000000000000888 ) ;
#269 = CARTESIAN_POINT ( 'NONE',  ( 6.000000000000000888, 7.347880794884120722E-16, 5.000000000000000000 ) ) ;
#270 = DIRECTION ( 'NONE',  ( 1.000000000000000000, 0.000000000000000000, 0.000000000000000000 ) ) ;
#271 = AXIS2_PLACEMENT_3D ( 'NONE', #300, #259, #66 ) ;
#272 = APPROVAL_PERSON_ORGANIZATION ( #175, #224, #52 ) ;
#273 = APPROVAL ( #104, 'NEURÈENÝ' ) ;
#274 = PRODUCT_DEFINITION_SHAPE ( 'NONE', 'NONE',  #93 ) ;
#275 = ORIENTED_EDGE ( 'NONE', *, *, #241, .F. ) ;
#276 = AXIS2_PLACEMENT_3D ( 'NONE', #41, #140, #286 ) ;
#277 = ORIENTED_EDGE ( 'NONE', *, *, #131, .T. ) ;
#278 = APPROVAL_ROLE ( '' ) ;
#279 = COORDINATED_UNIVERSAL_TIME_OFFSET ( 1, 0, .AHEAD. ) ;
#280 = CARTESIAN_POINT ( 'NONE',  ( -6.000000000000000888, 0.000000000000000000, 0.000000000000000000 ) ) ;
#281 = PERSON_AND_ORGANIZATION ( #133, #231 ) ;
#282 = TOROIDAL_SURFACE ( 'NONE', #190, 3.700000000000000178, 0.2000000000000000111 ) ;
#283 = DIRECTION ( 'NONE',  ( 1.000000000000000000, 0.000000000000000000, 0.000000000000000000 ) ) ;
#284 = CARTESIAN_POINT ( 'NONE',  ( -6.000000000000000888, 0.000000000000000000, 5.000000000000000000 ) ) ;
#285 = ADVANCED_FACE ( 'NONE', ( #206 ), #210, .T. ) ;
#286 = DIRECTION ( 'NONE',  ( -1.000000000000000000, 0.000000000000000000, 0.000000000000000000 ) ) ;
#287 =( GEOMETRIC_REPRESENTATION_CONTEXT ( 3 ) GLOBAL_UNCERTAINTY_ASSIGNED_CONTEXT ( ( #162 ) ) GLOBAL_UNIT_ASSIGNED_CONTEXT ( ( #70, #213, #139 ) ) REPRESENTATION_CONTEXT ( 'NONE', 'WORKASPACE' ) );
#288 = CARTESIAN_POINT ( 'NONE',  ( 0.000000000000000000, 0.000000000000000000, 0.000000000000000000 ) ) ;
#289 = DIRECTION ( 'NONE',  ( 1.000000000000000000, 0.000000000000000000, 0.000000000000000000 ) ) ;
#290 = CARTESIAN_POINT ( 'NONE',  ( 0.000000000000000000, 0.000000000000000000, 5.199999999999982414 ) ) ;
#291 = AXIS2_PLACEMENT_3D ( 'NONE', #205, #45, #182 ) ;
#292 = ORIENTED_EDGE ( 'NONE', *, *, #191, .F. ) ;
#293 = CC_DESIGN_DATE_AND_TIME_ASSIGNMENT ( #36, #19, ( #93 ) ) ;
#294 = EDGE_LOOP ( 'NONE', ( #35, #176 ) ) ;
#295 = AXIS2_PLACEMENT_3D ( 'NONE', #96, #245, #142 ) ;
#296 = PERSON_AND_ORGANIZATION_ROLE ( 'creator' ) ;
#297 = EDGE_LOOP ( 'NONE', ( #63, #223 ) ) ;
#298 = PERSON_AND_ORGANIZATION ( #133, #231 ) ;
#299 = EDGE_CURVE ( 'NONE', #125, #42, #235, .T. ) ;
#300 = CARTESIAN_POINT ( 'NONE',  ( 0.000000000000000000, 0.000000000000000000, 5.000000000000000000 ) ) ;
#301 = DATE_AND_TIME ( #84, #258 ) ;
#302 = DIRECTION ( 'NONE',  ( 1.000000000000000000, 0.000000000000000000, -0.000000000000000000 ) ) ;
#303 = CIRCLE ( 'NONE', #25, 3.500000000000000000 ) ;
#304 = FACE_OUTER_BOUND ( 'NONE', #255, .T. ) ;
#305 = DIRECTION ( 'NONE',  ( 0.000000000000000000, 0.000000000000000000, 1.000000000000000000 ) ) ;
#306 = PLANE ( 'NONE',  #168 ) ;
#307 = VECTOR ( 'NONE', #20, 1000.000000000000000 ) ;
ENDSEC;
END-ISO-10303-21;
